311 - Guns Are For Pussies Chords & Tabs

 

Guns Are For Pussies Chords & Tabs

311 Chords & Tabs

Version: 2 Type: Bass Tab 0 ratings
1 star 2 stars 3 stars 4 stars 5 stars
comments

Guns Are For Pussies Bass Tab

   
'Guns (are for pussies)' -- Bass Tab
Performed by 311
From the album "311" on Capricorn Records
Music by:  C. Sexton
Lyrics by:  N. Hexum & D. Martinez
(c) 1995 Capricorn Records
---------------
Tabbed by: Jeremy Daw (summit@rideau.net)
The 311 Guitar Archive -- http://chromosome.colorado.edu/311archive/Home.html


Riff 1:
=======

G:---------------------------------------------------
D:---------------------------------------------------
A:-2-4-2-4-5-5--2-4-2-4-5-5--------------------------
E:--------------------------0-2-0-2-3-3--0-2-0-2-3-3-
B:---------------------------------------------------


Riff 2:
=======

G:--------------------------------------------------
D:--------------------------------------------------
A:------------2----------------------2--------------
E:-1--3--3-3-----3--3-3---1--3--3-3-----3-3---3-3-3-
B:--------------------------------------------------
[ Tab from: http://www.guitartabs.cc/tabs/0-9/311/guns_are_for_pussies_btab_ver_2.html ]
G:-------------------------------------------------
D:-------------------------------------------------
A:------------2----------------------3---5---2-----
E:-1--3--3-3-----3--3-3---1--3--3-3-------------3--
B:-------------------------------------------------


Chorus:
=======

G:----------------------------
D:----------------------------
A:----------------------------
E:-0-5-0-0-5--5--0-3-0-0-2--2-
B:----------------------------


Ending:
=======

G:----------------------------------------------------------------
D:----------------------------------------------------------------
A:----------------------------------------------------------------
E:---------------------------------0-0-0--2-2-1--2-0-0-0--2-2-1-0-
B:-3-3-3--2-2-1--2-3-3-3--2-2-1--2--------------------------------


Last Note:
==========

G:---
D:---
A:---
E:---
B:-3-


== Last Updated:  November 3, 1997 ==
Comments