311 - Grassroots Chords & Tabs

 

Grassroots Chords & Tabs

311 Chords & Tabs

Version: 3 Type: Bass Tab

Grassroots Bass Tab

   
Artist: 311
Song: Grassroots
Album: Grassroots (1994)
Bassist: P-Nut
Tuning: B-E-A-D-G
Notes: -This is a pretty difficult song to tab due to the 
          production on this whole album
       -The nice thing about this bassline is that there is alot 
          of room to improvise in the breaks and outro


Verse 1:                                        _____
G|---------------------------------------------|     \
D|---------------------------------------------|      \
A|----------0----1-/3------------0-------1-/3--|       \
E|--1-1-0-1---1--------1-1-1-0-1---1-0-1-------|        \
B|---------------------------------------------|         \
                                                         (x2)
G|--------------------------------------------|          /
D|--------------------------------------------|         /
A|----------0----1-/3----3---2---1---0--1-/3--|        /
E|--1-1-0-1---1--------1----------------------|       /
B|--------------------------------------------|______/

G|---------------------------------------------|
D|---------------------------------------------|
A|----------0----1-/3------------0-------1-/3--|
E|--1-1-0-1---1--------1-1-1-0-1---1-0-1-------|
B|---------------------------------------------|

G|--------------------------------------|
D|--------------------------------------|
A|----------0----1-/3----3---2---1---0--|
E|--1-1-0-1---1--------1----------------|
B|--------------------------------------|


Pre-Chorus:
G|-----------------------------------------------------------------|
D|-----------------------------------------------------------------|
A|-----------------------------------------------------------------|
E|--3-3--x3--6-6--6-6-6--3-3--x3--6-6--6-6-6--3-3--x3--6-6--6-6-6--|
B|-----------------------------------------------------------------|

G|----------------------5--|
D|-------------------------|
A|--------------3-x1h3-x---|
E|--4--4--4--4-------------|
B|-------------------------|
                S SS   SP
G|-----------------------------------------------------------------|
D|-----------------------------------------------------------------|
A|-----------------------------------------------------------------|
E|--3-3--x3--6-6--6-6-6--3-3--x3--6-6--6-6-6--3-3--x3--6-6--6-6-6--|
B|-----------------------------------------------------------------|

G|----------------------5-----------------------------5--|
D|-------------------------------------------------------|
A|--------------3-x1h3-x--------------xhxxxhxxxhxxxhxx---|
E|--4--4--4--4-------------4--4--4--4--------------------|
B|-------------------------------------------------------|
                S SS   SP             S SSS SSS SSS SSP


Chorus:
G|------------------------------------------------|
D|------------------------------------------------|
A|--1-/3------------0----1-/3------------0--------|
E|--------1-1-1-0-1---1--------1-1-1-0-1---1-0-1--|
B|------------------------------------------------| (x2)


Verse 2:
G|----------------------------------------------------|
D|----------------------------------------------------|
A|---------------------------3-3-3-3-1-3--3--3-3-1-3--|
E|--3-3-3-3-1-3--3--3-3-1-3---------------------------|
B|----------------------------------------------------|

G|----------------------------------------------------|
D|---------------5--5---------------------------------|
A|---------------------------3-3-3-3-1-3--3-3-x1-3-1--|
E|--3-3-3-3-1-3------x1-3-1---------------------------|
B|----------------------------------------------------|

G|--------------------------------------------------|
D|--------------------------------------------------|
A|---------------------------1----1-0-1-1h3p1-x1-0--|
E|--1----1-0-1---1--1-1-0-1-------------------------|
B|--------------------------------------------------|

G|---------------------------------|
D|---------------------------------|
A|------------------------------1--|
E|--3-----3-1-3--3--3-3-1-3--------|
B|---------------------------2-----|


Break:
G|----------------------------------------------------|
D|---------4---------4-------------2------------------|
A|--5----------5-------5-----3--------3------3--------|
E|-----5---------5-------5-----3--------3------3-3-3--|
B|----------------------------------------------------|

G|-------------------------------------------------|
D|---------4---------4-------------2---------------|
A|--5----------5-------5-----3--------3------------|
E|-----5---------5-------5-----3--------3-2-3-0-0--|
B|-------------------------------------------------|

G|----------------------------------------------------|
D|--4-------4---------4------2-------2---------2------|
A|----5---------5-------5------3--------3--------3----|
E|------5---------5-------5------3---------3-------3--|
B|----------------------------------------------------|

G|----------------------------------------------------|
D|--4-------4---------4------2-------2----------------|
A|----5---------5-------5------3--------3-------------|
E|------5---------5-------5------3---------3-2-3-0-3--|
B|----------------------------------------------------|


Verse 3:
G|------------------------------------------------|
D|------------------------------------------------|
A|--1-/3------------0----1-/3------------0--------|
E|--------1-1-1-0-1---1--------1-1-1-0-1---1-0-1--|
B|------------------------------------------------|
[ Tab from: http://www.guitartabs.cc/tabs/0-9/311/grassroots_btab_ver_3.html ]
G|----------------------------------------------|
D|----------------------------------------------|
A|--1-/3------------0----1-/3----3---2---1---0--|
E|--------1-1-1-0-1---1--------1----------------|
B|----------------------------------------------|

G|------------------------------------------------|
D|------------------------------------------------|
A|--1-/3------------0----1-/3------------0--------|
E|--------1-1-1-0-1---1--------1-1-1-0-1---1-0-1--|
B|------------------------------------------------|

G|----------------------------------------------|
D|----------------------------------------------|
A|--1-/3------------0----1-/3----3---2---1---0--|
E|--------1-1-1-0-1---1--------1----------------|
B|----------------------------------------------|

G|-----------------------------------------------------------------|
D|-----------------------------------------------------------------|
A|--1-/3---------------------------1-/3----------------------------|
E|-------1-1--1-1--1-1--1-1--1-1-1------1-1--1-1--1-1--1-1--1-1-1--|
B|-----------------------------------------------------------------|

G|--------------------------------------------------------|
D|--------------------------------------------------------|
A|--1-/3---------------------------1-/3----3---2---1---0--|
E|-------1-1--1-1--1-1--1-1--1-1-1-------1----------------|
B|--------------------------------------------------------|


Pre-Chorus:
G|-----------------------------------------------------------------|
D|-----------------------------------------------------------------|
A|-----------------------------------------------------------------|
E|--3-3--x3--6-6--6-6-6--3-3--x3--6-6--6-6-6--3-3--x3--6-6--6-6-6--|
B|-----------------------------------------------------------------|

G|----------------------5--|
D|-------------------------|
A|--------------3-x1h3-x---|
E|--4--4--4--4-------------|
B|-------------------------|
                S SS   SP
G|-----------------------------------------------------------------|
D|-----------------------------------------------------------------|
A|-----------------------------------------------------------------|
E|--3-3--x3--6-6--6-6-6--3-3--x3--6-6--6-6-6--3-3--x3--6-6--6-6-6--|
B|-----------------------------------------------------------------|

G|----------------------5-----------------------------5--|
D|-------------------------------------------------------|
A|--------------3-x1h3-x--------------xhxxxhxxxhxxxhxx---|
E|--4--4--4--4-------------4--4--4--4--------------------|
B|-------------------------------------------------------|
                S SS   SP             S SSS SSS SSS SSP


Chorus:
G|------------------------------------------------|
D|------------------------------------------------|
A|--1-/3------------0----1-/3------------0--------|
E|--------1-1-1-0-1---1--------1-1-1-0-1---1-0-1--|
B|------------------------------------------------| (x2)


Verse 2:
G|----------------------------------------------------|
D|----------------------------------------------------|
A|---------------------------3-3-3-3-1-3--3--3-3-1-3--|
E|--3-3-3-3-1-3--3--3-3-1-3---------------------------|
B|----------------------------------------------------|

G|----------------------------------------------------|
D|---------------5--5---------------------------------|
A|---------------------------3-3-3-3-1-3--3-3-x1-3-1--|
E|--3-3-3-3-1-3------x1-3-1---------------------------|
B|----------------------------------------------------|

G|--------------------------------------------------|
D|--------------------------------------------------|
A|---------------------------1----1-0-1-1h3p1-x1-0--|
E|--1----1-0-1---1--1-1-0-1-------------------------|
B|--------------------------------------------------|

G|---------------------------------|
D|---------------------------------|
A|------------------------------1--|
E|--3-----3-1-3--3--3-3-1-3--------|
B|---------------------------2-----|


Break/Outro:
G|----------------------------------------------------|
D|---------4---------4-------------2---------------5--|
A|--5----------5-------5-----3--------3------3--------|
E|-----5---------5-------5-----3--------3------3-3----|
B|----------------------------------------------------|

G|-------------------------------------------------|
D|---------4---------4-------------2---------------|
A|--5----------5-------5-----3--------3------------|
E|-----5---------5-------5-----3--------3-2-3-0-3--|
B|-------------------------------------------------|

G|----------------------------------------------------|
D|--4-------4---------4------2-------2---------2------|
A|----5---------5-------5------3--------3--------3----|
E|------5---------5-------5------3---------3-------3--|
B|----------------------------------------------------|
                                                       _______
G|----------------------------------------------------|       \
D|--4-------4---------4------2-------2----------------|        \
A|----5---------5-------5------3--------3-------------|         \
E|------5---------5-------5------3---------3-2-3-0-3--|          \
B|----------------------------------------------------|           \
                                                                 (x2)
G|----------------------------------------------------|           /
D|--4-------4---------4------2-------2---------2------|          /
A|----5---------5-------5------3--------3--------3----|         /
E|------5---------5-------5------3---------3-------3--|        / 
B|----------------------------------------------------|_______/

G|-----------------------------------------------------|
D|--4-------4---------4--------------------------------|
A|----5---------5-------5--------------------10-10-10--|
E|------5---------5-------5---6~----7~---9~------------|
B|-----------------------------------------------------|