311 - Give Me A Call Chords & Tabs

 

Give Me A Call Chords & Tabs

311 Chords & Tabs

Version: 1 Type: Tab 0 ratings
1 star 2 stars 3 stars 4 stars 5 stars
comments

Give Me A Call Tab

Thank You for looking at my tab, since I love this song and I looked all over the
damn place for this song I didnt see it so I decided to tab this myself. Have fun
and enjoy. 311 kicks ass!

**Tabbed by acoustic-freak this is for you girls and guys who like 311**



*Intro/Verse |x12|
E|-------------------------------------------------------------------|
B|-------------------------------------------------------------------|
G|-------------------------------------------------------------------|
D|-------------------------------------------------------------------|
A|-5-------------------------------5---------------------------------|
E|---2-3-5-5-5-5-0-5-5-5-5-5-5-5-----2-3-5-5-5-5-0-5-5-5-5-5-5-5-----|

*Chorus |x4?
E|----------------------------------------------|
B|----------------------------------------------|
G|-------4--------------------------------------|
D|----------------------------------------------|
A|-2-2-2----2-----------------------------------|
E|--------------5-5-5-5-5-4-2-------------------|

E|----------------------------------------------------------------|
B|----------------------------------------------------------------|
G|-4-4-4-4-4-4-4-----------------4-4-4-4-4-4-4--------------------|
D|-4-4-4-4-4-4-4-----------------4-4-4-4-4-4-4--------------------|
A|-2-2-2-2-2-2-2-----------------2-2-2-2-2-2-2--------------------|
E|---------------5-5-5-5-5-4-2-----------------5------------------|
[ Tab from: http://www.guitartabs.cc/tabs/0-9/311/give_me_a_call_tab.html ]
*Bridge |x4|
E|-----------------0-4-----------------0-4-0--------------|
B|--------------------------------------------------------|
G|----3-4-6----3-4---------3-4-6----4-6-------4-3---------|
D|-4--------2-----------4--------2------------------------|
A|--------------------------------------------------------|
E|--------------------------------------------------------|

Bridge (Nick's Part):
E|--------------------------------------------------------|
B|--------------------------------------------------------|
G|---4-4-4---------------4-4-4----------------------------|
D|--------------------------------------------------------|
A|-2-------0-----------2-------0--------------------------|
E|-----------4-4-2-2-------------2-2-2-2-2-2-2-2----------|

E|--------------------------------------------------------|
B|--------------------------------------------------------|
G|---4-4-4---------------4-4-4----------------------------|
D|--------------------------------------------------------|
A|-2-------0-----------2-------0--------------------------|
E|-----------4-4-2-2--------------------------------------|


Fill 1:
E|---------------------------------|
B|---------------------------------|
G|---------------------------------|
D|---------------------------------|
A|---------------------------------|
E|-5-4-2-0--5-4-2-0----------------|


Thank You for looking at my tab, since I love this song and I looked all over the
damn place for this song I didnt see it so I decided to tab this myself. Have fun
and enjoy. 311 kicks ass!

**Tabbed by acoustic-freak this is for you girls and guys who like 311**
Comments