311 - Getting Through To Her Chords & Tabs

 

Getting Through To Her Chords & Tabs

311 Chords & Tabs

Version: 1 Type: Tab 0 ratings
1 star 2 stars 3 stars 4 stars 5 stars
comments

Getting Through To Her Tab

Band: 311
Song: Getting Through To Her 
Album: Don't Tread On Me
Tabbed by: Joe Doviak (jodo311)

Tuning: Standard

Intro: Clean w/ a little bit of vibrato
e|--9/11-11-9------------------9/11-11-9-----------9/11-----9/11-----9-----|
B|-------------12-12--9-------------------12-12-12------12--------12-------|
G|----------------------11-------------------------------------------------|
D|-------------------------------------------------------------------------|
A|-------------------------------------------------------------------------|
E|-------------------------------------------------------------------------|

e|--9-9/11-12-11-12/14-12--11-12-11-12-9--9-9--------9/11-11-9-------------|
B|--------------------------------------------12-12------------12-12--9----|
G|----------------------------------------------------------------------11-|
D|-------------------------------------------------------------------------|
A|-------------------------------------------------------------------------|
E|-------------------------------------------------------------------------|

Verse: Slight distortion
e|-----7-x-x-7---7-7---7-7-7-7--|
B|-----7-x-x-7---9-9---9-9-9-9--|
G|-----8-x-x-8---7-7---7-7-7-7--|
D|--9---------------------------|
A|--9---------------------------|
E|--7---------------------------|

Chorus: Some more vibrato
e|-----7-9-/11-9---------7-9-/11-9-7-7-7---------|
B|-7-9-------------6-7-9-------------------------|
G|-----------------------------------------------|
D|-----------------------------------------------|
A|-----------------------------------------------|
E|-----------------------------------------------|
[ Tab from: http://www.guitartabs.cc/tabs/0-9/311/getting_through_to_her_tab.html ]
Post Chorus: Slight distortion  "All she wants is some breathing room..."
e|--------------------------|
B|--------------------------|
G|--------------------------|
D|----------9-9---9-9-9-9---|
A|--9-9---9-7-7---7-7-7-7---|
E|--7-7---7-7-7---7-7-7-7---|

Bridge: Distortion
e|----------------------------------------------------|
B|----------------------------------------------------|
G|----------------------------------------------------|
D|----------------------------------------------------|
A|--4-4---4-4--6-6-6-6-4-2---2-2---2-2--0-2-4-6-4-2---|
E|--2-2---2-2----------------0-0---0-0----------------|

 This is the part where S.A. songs "Life is not T.V."
e|-------------------------------------------------------------------|
B|-------------------------------------------------------------------|
G|-------------------------------------------------------------------|
D|-------------------------------------------------------------------|
A|--4--4-4-4---4-4-4---4-4-4---4-4-2---2-2-2---2-2-2--2-2-2---2-2----|
E|--2--2-2-2---2-2-2---2-2-2---2-2-0---0-0-0---0-0-0--0-0-0---0-0----|

e|--------------------------------|
B|--------------------------------|
G|--------------------------------|
D|--------------------------------|
A|--4--4-4-4---4-4-2---2-2-2---2--|  Let last chord ring out
E|--2--2-2-2---2-2-0---0-0-0---0--|


Quiet Interlude: Vibrato (I think)
e|---9---7---7---5--------9---7---7--------|
B|--10---9---7---5-------10---9---7--------|
G|--11---8---8---6-------11---8---8--------|
D|-----------------------------------------|
A|-----------------------------------------|
E|-----------------------------------------|

It goes back to the chorus and the ending is the part after the chorus.

I noticed nobody had this one, so I went ahead 
and graced everyone with it. ha. Enjoy.
         P.S.   Please rate!

| /  slide up
| \  slide down
Comments