311 - Gap Chords & Tabs

 

311 Chords & Tabs

Version: 1 Type: Tab 0 ratings
1 star 2 stars 3 stars 4 stars 5 stars
comments

Gap Tab

  "Gap" by 311

   Verse Riff
 e------------------------------
 B------------------------------
 G------------------------------
 D----4-2-0-0---0-2-------------
 A--2---------4-----4-4-------4-
 E----------------------0/2/5---
[ Tab from: http://www.guitartabs.cc/tabs/0-9/311/gap_tab.html ]
   Chorus
 e--------------------------------------
 B--------------------------------------
 G--4--4-4-4----------5--5-5-5----------
 D--4--4-4-4-7--7-7-7-5--5-5-5-5--5-5-5-
 A--2--2-2-2-7--7-7-7-3--3-3-3-5--5-5-5-
 E--2--2-2-2-5--5-5-5-3--3-3-3-3--3-3-3-

   Interlude, Outro
 e--------------------------
 B--------------------------
 G--7--11-5--7-7-7-7--11\-5-
 D--7--11-5--7-7-7-7--11\-5-
 A--5--9--3--5-5-5-5--9\--3-
 E--5--9--3--5-5-5-5--9\--3-

    Ending
 e------
 B------  Slide down the neck 
 G--7\--  from this chord
 D--7\--  gradually.
 A--5\--
 E--5\--
 
 That's how you play Gap.
 Later.
Comments