311 - Galaxy Chords & Tabs

 

Galaxy Chords & Tabs

311 Chords & Tabs

Version: 3 Type: Bass Tab 0 ratings
1 star 2 stars 3 stars 4 stars 5 stars
comments

Galaxy Bass Tab

   
Song:Galaxy

Band:311

Album:Transistor

Tabber:T4-TURBO

Comments:The other tab for this song is VERY wrong.
its real e-z to hear that the intro is played on the 5th string.

intro:
g:-------------|
d:-------------|
a:-------------|
e:-------5-----|
b:7---3-----5-3|

Main Riff:
g:----------------------------------------------------|
d:----------------------------------------------------|
a:0-2-0----------0------------0-2-0----------0--------|
e:------3--3-3-3---1--1-1-1-1-------3--3-3-3---1-1h2-2|
b:----------------------------------------------------|
[ Tab from: http://www.guitartabs.cc/tabs/0-9/311/galaxy_btab_ver_3.html ]
g:3-2-3---------3-2-3-----------|
d:------------------------------|
a:------------------------------|
e:------------------------------|
b:------3--x-3--------3-3--3-3-3|

part a:
g:------------------------------------------|
d:------------------------------------------|
a:0-0-2-0-2-0---0-0-2-0---------------------|
e:------------3---------3-0-0-0-1-0-0-1-0-1-|
b:------------------------------------------|

part b:
g:-----------------------------------|
d:-----------------------------------|
a:0-0-2-0---0-0-2-0------------------|
e:--------3---------3-0-0-0-1-0------|
b:------------------------------3-0-5|

outro a:
g:-------------|
d:-------------|
a:-------------|
e:-------5-----|
b:7---3-----5-3|

outro b:
g:--------------|
d:--------------|
a:--------------|
e:--------------|
b:3-4-1--3-4-1--|
Comments