311 - Full Ride Chords & Tabs

 

Full Ride Chords & Tabs

311 Chords & Tabs

Version: 2 Type: Tab 0 ratings
1 star 2 stars 3 stars 4 stars 5 stars
comments

Full Ride Tab

 "Full Ride" by 311
  From the album "From Chaos"

  Intro 

 e---------------------------------------------------------
 B---------------------------------------------------------
 G---------------------------------------------------------
 D----3----------3----------3-------3-------3--------------
 A------6-4--------6-4--------6-4-----6-4-----6-4--6/8--8--
 E--4-------3--4-------3--4-------4-------4----------------

  Verse
      P.M.  P.M.
 e---------------
 B---------------
 G---------------
 D---------------
 A--4--2--4--2---
 E--2--0--2--0---

  Chorus Riff
 e-------------------------------
 B-------------------------------  This riff is a little 
 G-------------------------------  hard to get down right 
 D--------1-4----------1---------  away. If you have problems,
 A--2-1-2------2-2-1-2---2-2-4-2-  you should play along to the 
 E-------------------------------  disc.
[ Tab from: http://www.guitartabs.cc/tabs/0-9/311/full_ride_tab_ver_2.html ]
  Interlude
 e---------------------------
 B---------------------------
 G---------------------------
 D----3-1---3-1---3-1-X-1/3--
 A--3------------------------
 E--------4-----3------------

  Second Verse
       P.M.------------------]
 e-----------------------------
 B-----------------------------
 G-----------------------------
 D-----------------------------
 A--4--2--2-2-2-2-2-2-2-2-2-2--
 E--2--0--0-0-0-0-0-0-0-0-0-0--

  Bridge (I'm a doberman...)
 e----------------------------------------
 B----------------------------------------
 G----------------------------------------
 D-----------------------------------2----
 A----4---2-5-5-0-3-4----4---2-5-5-0---4--
 E--5---3--------------5---3--------------
 
  Ending
       P.M.
 e----------
 B----------
 G----------
 D----------
 A--4--2----
 E--2--0----

  That's my tablature for this song.
 The interlude may not be correct, but 
 I'm pretty confident about the rest of it.
Comments