311 - From Chaos Chords & Tabs

 

From Chaos Chords & Tabs

311 Chords & Tabs

Version: 3 Type: Tab 0 ratings
1 star 2 stars 3 stars 4 stars 5 stars
comments

From Chaos Tab

Author/Artist: 311 
Title: From Chaos 
Album: From Chaos 
Transcribed by: Chris Camano 
Email: ShuveLn311@aol.com 

Transcribed in standard Eadgbe tuning 
The second of my 311 tabs, this song is my prediction for the next big hit! 
Song Structure: 
Intro 
Verse(Part1) 
Verse(Part2) 
Prechorus(1) 
Prechorus(2) 
Chorus 
Verse(Part1) 
Verse(Part2) 
Odd 10 second bridge with keyboard or something 
Prechorus(1) 
Prechorus(2) 
Chorus 

Intro/Chorus' 

------------------------------------------------------------------------------ 
------------------------------------------------------------------------------ 
-------5------5-5--------5----5-5-5--------5------5-5--------5---5-5---------- 
-5--3--5--3-3-5-5--5--3--5--3-5-5-5--5--3--5--3-3-5-5--5--3--5---5-5---------- 
-5--3--3--3-3-3-3--5--3--3--3-3-3-3--5--3--3--3-3-3-3--5--3--3---3-3---------- 
-3--1-----1-1------3--1-----1--------3--1-----1-1------3--1------------------- 
 Verse(Part1)                                                                  

------------------------------------------------------------------------------ 
------------------------------------------------------------------------------ 
------------------------------------------------------------------------------ 
------------------------------------------------------------------------------ 
-------1-1-3-5-3-3----------1-1-3-5-3-3h5p3----------------------------------- 
-3-3-3----------------3-3-3--------------------------------------------------- 
                                                                               
[ Tab from: http://www.guitartabs.cc/tabs/0-9/311/from_chaos_tab_ver_3.html ]
------------------------------------------------------------------------------ 
------------------------------------------------------------------------------ 
------------------------------------------------------------------------------ 
------------------------------------------------------------------------------ 
-------1-1-3-5-3-3----------1-1-3-5-3-3h5p3----------------------------------- 
-3-3-3----------------3-3-3-----------------3--------------------------------- 
 Verse(Part2)                                                                  

------------------------------------------------------------------------------ 
------------------------------------------------------------------------------ 
------------------------------------------------------------------------------ 
-5-3-5-3-7-3-3-0-3--5-3-5-3-7-3-3-0-3--5-3-5-3-7-3-3-0-3--5-3-5-3-7-3-3-0-3--- 
------------------------------------------------------------------------------ 
------------------------------------------------------------------------------ 
 Prechorus(1)    Ring these out   ^ ^                   Ring these out  ^ ^    

------------------------------------------------------------------------------ 
------------------------------------------------------------------------------ 
------------------------------------------------------------------------------ 
------------------------------------------------------------------------------ 
-----5-3-3-1-1-0-----5-5-3-1-1-0-----5-3-3-1-1-0-----5-5-3-1-1-0-------------- 
-3-3-------------3-3-------------3-3-------------3-3-------------------------- 
 Prechorus(2)                                                                  

------------------------------------------------------------------------------ 
------------------------------------------------------------------------------ 
------------------------------------------------------------------------------ 
------------------------------------------------------------------------------ 
----5-3-3-1-1-0----5-5-3-1-1-0----5-3-3-1-1-0----5-5-3-1-1-0------------------ 
-3--------------3--------------3--------------3------------------------------- 
 Let all notes ring as compared to the 1st prechorus, hearing the song helps!  
Comments