311 - From Chaos Chords & Tabs

 

From Chaos Chords & Tabs

311 Chords & Tabs

Version: 2 Type: Tab 0 ratings
1 star 2 stars 3 stars 4 stars 5 stars
comments

From Chaos Tab

Song: "From Chaos"
Band: 311
Album: From Chaos
Tabbed By: Frankie Ruiz

INTRO/CHORUS
e---------------------------------
b---------------------------------
g---------------------------------
d-999--77--55-5-7----999--77--55-5
a-999--77--55-5-7----999--77--55-5
E-777--55--33-3-5----777--55--33-3

e---------------------------------
b---------------------------------
g-----------------------------7-5-
d-999--77--55-5-7----999--77--7-5-
a-999--77--55-5-7----999--77--5-3-
E-777--55--33-3-5----777--55------

VERSE I
  Part1
e--------------------------------
b--------------------------------
g--------------------------------
d----------0---------------------(8x)
a------1-3---33------------------
E-3333---------------------------
[ Tab from: http://www.guitartabs.cc/tabs/0-9/311/from_chaos_tab_ver_2.html ]
  Part2
e--------------------------------
b--------------------------------
g---------22---------------------
d-5-3-5-3----5-0-3---------------(4x then part1 4x) 
a--------------------------------
E--------------------------------

  Part3
e--------------------------------
b--------------------------------
g-----7--------------------------
d-55--7--1010--8-7---------------(4x)
a-55--5--1010--8-7---------------
E-33-----8-8---6-5---------------

  Part4
e--------------------------------
b--------------------------------
g-----77-------------------------
d-55--77--1010-8-7---------------(4x)
a-55--55--1010-8-7---------------
E-33------8-8--6-5---------------

CHORUS

VERSE II
  Part1 4x
  Part2 4x then weird effects on the guitar
  Part3 4x
  Part4 4x

CHORUS
 
Pretty easy. Just listen for rythym.
Comments