311 - Freeze Time Chords & Tabs

 

Freeze Time Chords & Tabs

311 Chords & Tabs

Version: 1 Type: Tab 0 ratings
1 star 2 stars 3 stars 4 stars 5 stars
comments

Freeze Time Tab

  "Freeze Time" by 311
   From the Soundsystem album
 
   Intro, Verse (you can play this part palm muted)
  e------------------------------------
  B------------------------------------
  G------------------------------------
  D----7-6---6----------7-6---6--------
  A--4-5-4-7-4-7-6-7--4-5-4-7-4-7-6-7--
  E--2-----5---5-4-5--2-----5---5-4-5--

   Harmony guitar part(two guitars)
  e-------------------
  B-------------------
  G----7-6---6--------
  D----7-6-7-6-7-6-7\-
  A--9-----7---7-6-7\-
  E--9----------------

   SA verse (you will be immortal man...)
  e-------------------------------
  B-------------------------------
  G-------------------------------
  D-------------------------------
  A--4-4--4-4--4-4--7-7--4-4--X\--
  E--2-2--2-2--2-2--5-5--2-2--X\--

  Here are the fills for the SA verse:
  First Fill:        Second Fill:
  e------            e--------------------
  B--10--            B--------------------
  G---8--            G--------------------
  D------            D----------11----11--
  A------            A--9/11/12----12-----
  E------            E--------------------
[ Tab from: http://www.guitartabs.cc/tabs/0-9/311/freeze_time_tab.html ]
  Chorus 
     P.M.---------]
  e--------------------------------------
  B--------------------------------------
  G--------------------------------------
  D--------------------------------------
  A--2-2-2-2-2-2-2-7----7-6-4-6-9-6-4-6--
  E--0-0-0-0-0-0-0-5----5-4-2-4-7-4-2-4--

  Outro 
     P.M.-------]  P.M.-------]  P.M.-------] P.M.-]   P.M.-]
  e------------------------------------------------------------
  B------------------------------------------------------------
  G------------------------------------------------------------
  D------------------------------------------------------------
  A--2-2-2-2-2-2---2-2-2-2-2-2---2-2-2-2-2-2---2-2-2---2-2-2---
  E--0-0-0-0-0-0-5-0-0-0-0-0-0-5-0-0-0-0-0-0-5-0-0-0-5-0-0-0-5-
     P.M.-------]  P.M.-------]  
  e----------------------------------------------------
  B----------------------------------------------------
  G----------------------------------------------------
  D----------------------------------------------------
  A--2-2-2-2-2-2---2-2-2-2-2-2----7-6-4-6-9-6-4-6--4\--
  E--0-0-0-0-0-0-5-0-0-0-0-0-0-0--5-4-2-4-7-4-2-4--2\--

  This is the whole song. It's really simple after 
  you play it a lot. 
  See ya later.
Comments