311 - Freeze Time Chords & Tabs

 

Freeze Time Chords & Tabs

311 Chords & Tabs

Version: 4 Type: Bass Tab 0 ratings
1 star 2 stars 3 stars 4 stars 5 stars
comments

Freeze Time Bass Tab

-------------------------------------------------------------------------------
			     Freeze time (4 string) - 311
-------------------------------------------------------------------------------

Tabbed By : RHbassist
e-mail: RHbassplayer@gogoworld.com

Tuning: Standard

Riff 1/Intro
G|---------------------|
D|---------------------|
A|---5-4---4-----------|
E|-2-----5---5-4-5-----|

Riff 2
G|----------------------------------|
D|----------------------------------|
A|----------------------------------|
E|-2-2---2-2---2-2---5-5---2-2------|
[ Tab from: http://www.guitartabs.cc/tabs/0-9/311/freeze_time_btab_ver_4.html ]
Riff 3
G|--------------------------------------|
D|--------------------------------------|
A|--------------------------------------|
E|-0-0-0-0-0-0-0-5---5-4-3-5-7-4-3-5----|

Riff 4
G|---------------------|
D|---------------------|
A|---------------------|
E|-0-5---5---5---5-----|

Riff 5
G|------------------------------|
D|------------------------------|
A|------------------------------|
E|-0-0-0-0-0-0-0-5-0-0-5-0-0-5--|

Outro Riff
G|--------------------------------------|
D|--------------------------------------|
A|--------------------------------------|
E|-5-4-3-5-7-4-3-5----0-(let-ring)~-----|


That's it. If you need a song structure, listen to the song or e-mail me @ RHbassplayer@gogoworld.com

===============================================================================
Comments