311 - Freeze Time Chords & Tabs

 

Freeze Time Chords & Tabs

311 Chords & Tabs

Version: 3 Type: Bass Tab 0 ratings
1 star 2 stars 3 stars 4 stars 5 stars
comments

Freeze Time Bass Tab

   
Song:freeze time

Album:Sound-system

By:311

Tabber:T4-TURBO

Main Riff:
g:---------------|
d:---------------|
a:--5-4---4------|
e:2-----5---5-4-5|
b:---------------|

Riff 2:
g:-----------------------------|
d:-----------------------------|
a:-----------------------------|
e:-----------------------------|
b:2-5--5-5-5-4-5-2-5--5-5-5-4-5|
[ Tab from: http://www.guitartabs.cc/tabs/0-9/311/freeze_time_btab_ver_3.html ]
Riff 3:
g:----------------------------|
d:----------------------------|
a:----------------------------|
e:0-0--0-0--0-0--5-5-0-0------|
b:-----------------------1////|

end:
g:-------------------------------------------------------------|
d:-------------------------------------------------------------|
a:-------------------------------------------------------------|
e:0-0-0-0-0-0-0-5-0-0-0-0-0-0-5-0-0-0-0-0-0-0-5-0-0-0-5-0-0-0-5|
b:-------------------------------------------------------------|

very end:
g:---------------------|
d:---------------------|
a:---------------------|
e:5-4-2-4-7-4-2-4-2////|
b:---------------------|
Comments