311 - Freak Out Chords & Tabs

 

Freak Out Chords & Tabs

311 Chords & Tabs

Version: 1 Type: Bass Tab 0 ratings
1 star 2 stars 3 stars 4 stars 5 stars
comments

Freak Out Bass Tab

   
"Freak Out"
Performed by 311
From the album "311" on Capricorn Records
Music by:  N. Hexum & C. Sexton
Lyrics by:  N. Hexum & D. Martinez
(c) 1995 Allegiance Music/Hydroponic Music BMI
----------
Tabbed by: Daniel Alonzo (isoscele@hiline.net)
311 Guitar Archive - http://chromosome.colorado.edu/311archive/Home.html

Formatted for a 4-string Bass      (x) = AN OPTIONAL FINGERING
                                         FOR THE NOTE(S) ABOVE IT.    
G|------------------|
D|------------------|
A|--------(2)(1)(0)-|
D|---------9--8--7--|


G|--------------------------------------------------------------| 
D|------------------------------------5-------------------------|
A|-5h7-7-7-5h7-5h7----5h7-7-7-5h7-5h7----5h7-7-7-5h7--(2)(1)(0)-|
D|-----------------------------------------------------9--8--7--|



G|-----------------------------------------------------------|
D|-----------------------------------------------------------|
A|---5\-----3-3-3-2-3--5\----3-2-3--3-2-3--------------------|
D|-----------------------------------------------------------|

Or  D|---12\-----| instead of the A|---5\------|

G|--------------------------------------------------------------| 
D|------------------------------------5-------------------------|
A|-5h7-7-7-5h7-5h7----5h7-7-7-5h7-5h7----5h7-7-7-5h7--(2)(1)(0)-|
D|-----------------------------------------------------9--8--7--|


G|-----------------------------------------------------------|
D|-----------------------------------------------------------|
A|--12\---0-0-0-3-0-3-5--------------------------------------|
D|-----------------------------------------------------------|

G|-----------------------------------------------------------|
D|-----------------------------------------------------------|
A|---5\-----3-3-3-2-3--5\----3-2-3--3-2-3--------------------|
D|-----------------------------------------------------------|

Or  D|---12\-----| instead of the A|---5\------|

G|----------------------------------------------------------------|
D|--------------------------------------------------0-------------|
A|------------------------------------------------2---2-----------|
D|-2-0-2-0-2-0-2-0-2-0-2-0-2-0-2-0-0-0-2-0--2-5-6-------5-5-4-4-2-|

[ Tab from: http://www.guitartabs.cc/tabs/0-9/311/freak_out_btab.html ]
G|--------------------------------------------------------------| 
D|------------------------------------5-------------------------|
A|-5h7-7-7-5h7-5h7----5h7-7-7-5h7-5h7----5h7-7-7-5h7------------|
D|--------------------------------------------------------------|


G|-----------------------------------------------------------|
D|-----------------------------------------------------------|
A|---5\-----3-3-3-2-3--5\----3-2-3--3-2-3--------------------|
D|-----------------------------------------------------------|


G|-----------------------------------------------------------|
D|-----------------------------------------------------------|
A|-0-0-0-3-0-3-5---0-0-0-3-0-3-5---0-0-0-3-0-3-5-------------|
D|-----------------------------------------------------------|

G|-----------------------------------------------------------|
D|----------------2-2-2-2-0-0-0-0-----0----------------------|
A|-0-0-0-3-0-3-5------------------3-0---3--------------------|
D|-----------------------------------------------------------|


G|----------------
D|----------------
A|-0-0-0-3-0-3-5
D|----------------


G|-----------------------------------------------------------|
D|-----------------------------------------------------------|
A|-0-0-0-0-3\--0-0-0-0-3\-----(0)----------------------------|
D|------------------------5-6--7-----------------------------|

G|------------------------------2----------------------------|
D|-----------------------------------------------------------|
A|-0-0-0-0-0-0-0-0-0-0-0-0-ETC.------------------------------|
D|-----------------------------------------------------------|



G|----------------------------------------------------------------|
D|--------------------------------------------------0-------------|
A|------------------------------------------------2---2-----------|
D|-2-0-2-0-2-0-2-0-2-0-2-0-2-0-2-0-0-0-2-0--2-5-6-------5-5-4-4---|

G|-----------------------------------------------------|
D|--------------------0------------------0-------------|
A|-----------0-------------0-----------2---2-----------|
D|-2-----------------------------2-5-6-------5-5-4-4---|

G|------------------------------------------------------------------|
D|------------------------------------------0-------------0---------|
A|----------------------------------------------0-------2---2-------|
D|-2-0-2-0-2-0-2-0-2-0-2-0-2-0-2-0-0-0-2-0--------2-5-6-------5-4---|

G|------------------------|
D|--------------0---------|REPEAT 5 TIMES -----2------ IS LAST NOTE
A|------------2---2-------|
D|------2-5-6-------5-4---|


== Last Updated:  April 15, 1997 ==

Comments