311 - Flowing Chords & Tabs

 

Flowing Chords & Tabs

311 Chords & Tabs

Version: 2 Type: Tab 0 ratings
1 star 2 stars 3 stars 4 stars 5 stars
comments

Flowing Tab

Standard Tuning:

Verse:
[ Tab from: http://www.guitartabs.cc/tabs/0-9/311/flowing_tab_ver_2.html ]
E|------------------------------------------------------------------|
B|------------------------------------------------------------------|  G|------------------------------------------------------------------|
D|--7-7-7-7--11-11-11-11--10--10--10--10--9-9-9-9-------------------|
A|--7-7-7-7--11-11-11-11--10--10--10--10--9-9-9-9-------------------|
E|--5-5-5-5--9--9--9--9---8---8---8---8---7-7-7-7-------------------|


'You can't be let down...':

E|------------------------------------------------------------------|
B|------------------------------------------------------------------|
G|------------------------------------------------------------------|
D|-3--4-4-4--5--6-6-6--3-3-3--4--5--6-6-6---------------------------|
A|-3--4-4-4--5--6-6-6--3-3-3--4--5--6-6-6---------------------------|
E|-1--2-2-2--3--4-4-4--1-1-1--2--3--4-4-4---------------------------|
Comments