311 - Flowing Chords & Tabs

 

Flowing Chords & Tabs

311 Chords & Tabs

Version: 5 Type: Bass Tab 0 ratings
1 star 2 stars 3 stars 4 stars 5 stars
comments

Flowing Bass Tab

   
Song:Flowing
Band:311
Album:Sound SyStem
Tabber:T4-TURBO

Comments:This goes all the way through so if it looks long thats why.

Intro:
G:-----------------|
D:-----------------|
A:-----------------|
E:5-------------7--|
B:-----4---3------9|

Main:
G:---------------------------------|
D:---------------------------------|
A:--------3-3----------------------|
E:5-5-5-5---------------7-----10-10|
B:------------4-4-3-3-3---9-9------|

G:---------------------------------|
D:---------------------------------|
A:---------------------------------|
E:5-5-5-5---------------7-----10-10|
B:--------4-4-4-4-2-2-2---9-9------|

G:-----------------------------------|
D:-----------------------------------|
A:------------4-4-3-3----------------|
E:5-5-5-5-----------------7-----10-10|
B:--------4-4---------3-3---9-9------|

G:-------------------------|
D:-------------------------|
A:-------------------------|
E:5-5-5-5---------------7--|
B:--------4-4-4-4-2-2-2---9|

Chorus:
G:-------------------------|
D:-------------------------|
A:-------------------------|
E:1-222-3-444-111-2-3-4-555|
B:-------------------------|

G:--------------|
D:--------------|
A:--------------|
E:5-3-5-3-5-3-53|
B:--------------|

G:-------------------------------|
D:-------------------------------|
A:-------------------------------|
E:111-222-333-444-111-222-333-444|
B:-------------------------------|

Main:
G:---------------------------------|
D:--------6-6-6-6-5-5-5-5----------|
A:--------4-4-4-4-3-3-3-3----------|
E:5-5-5-5-----------------7--------|
B:--------------------------9-9-2-2|
[ Tab from: http://www.guitartabs.cc/tabs/0-9/311/flowing_btab_ver_5.html ]
G:---------------------------------|
D:---------------------------------|
A:---------------------------------|
E:5-5-5-5---------------7-----10-10|
B:--------4-4-4-4-2-2-2---9-9------|

G:---------------------------------|
D:---------------------------------|
A:--------3-3-3-3------------------|
E:5-5-5-5-----------------7--------|
B:-----------------2-2-22---9-9-2-2|

G:-------------------------|
D:-------------------------|
A:------------4-4-3-3------|
E:5-5-5-5---------------7--|
B:--------3-3---------2---9|

Chorus
G:-------------------------|
D:-------------------------|
A:-------------------------|
E:1-222-3-444-111-2-3-4-555|
B:-------------------------|

G:--------------|
D:--------------|
A:--------------|
E:5-3-5-3-5-3-53|
B:--------------|

G:-------------------------------|
D:-------------------------------|
A:-------------------------------|
E:111-222-333-444-111-222-333-444|
B:-------------------------------|

Main:
G:---------------------------------|
D:---------------------------------|
A:------------4-4------------------|
E:5-5-5-5---------------7-----10-10|
B:--------3-3-----0-0-0---9-9------|

G:---------------------------------|
D:---------------------------------|
A:--------4-4-4-4-----5------------|
E:5-5-5-5---------------7-----10-10|
B:----------------3-3-----9-9------|

G:---------------------------------|
D:---------------------------------|
A:------------------------------5-5|
E:5-5-5-5-----------------7--------|
B:--------4-4-4-4--3-3-33---9-9----|

G:-----------------------------|
D:-----------------------------|
A:------------4-4-3-3----------|
E:5-5-5-5-----------------7----|
B:--------4-4---------2-2---(9)|(Let Ring)
Comments