311 - Flowing Chords & Tabs

 

Flowing Chords & Tabs

311 Chords & Tabs

Version: 3 Type: Bass Tab 0 ratings
1 star 2 stars 3 stars 4 stars 5 stars
comments

Flowing Bass Tab

   
311.
 Tabbed by jo gates kodie5@hotmail.com.
  

bass tab for:Flowing

By:311

album:soundsystem

tab by :JO gates





intro:
g:--------------------
d:--------------------
a:2-------------5-----           
E:--------------------
b:-----2----0--------5

chorus
g:------------------------------------
d:------------------------------------
a:------------------------------------
e:--------3-3-----2-2-2///5-----------
b:3-3-3-3-----0-0-----------5-5-0-00-0
[ Tab from: http://www.guitartabs.cc/tabs/0-9/311/flowing_btab_ver_3.html ]
g:-------------------------------
d:------------------------------- 
a:----------------------------5-5
e:------------------------5------
b:3-3-3-3-2-2-2-2-0-0-0-0---5---- 

g:
d:
a:
e:--------2-2-2-2-1-1-1-1///5
b:3-3-3-3---------------------(5)Let Ring.

main riff.
g:-------------------------
d:-------------------------
a:-------------------------
e:-------------------------
b:2-333-4-555-222-3-4-55555

main2
g:--------------
d:---------------
a:---------------
e:6--4--6--4--6-4
b:--------------- 

end:
g:----------------
D:----------------
a:----------------
e:----------------
B:(5)---let ring-- 
:: Ultimate Guitar Archive :: 
http://www.ultimate-guitar.com 



Comments