311 - Flowing Chords & Tabs

 

Flowing Chords & Tabs

311 Chords & Tabs

Version: 1 Type: Bass Tab 0 ratings
1 star 2 stars 3 stars 4 stars 5 stars
comments

Flowing Bass Tab

   
Artist: 311
Song: Flowing
Tabbed by: Curtis McCartney (sharkydart@fuse.net)
Intro tabbed by: Justin Reynolds (jxstylez@aol.com) 

Email me with corrections if you're in a band called 311 and your name
is P-Nut.

Intro:
======

G:----------------
D:----------------
A:----3---2-------
E:-3----------5-2-
B:----------------

Riff 1:
=======

G:---------------------------------
D:---------------------------------
A:-4-4-4-4-3-3-3-3-2-2-2-2---------
E:-------------------------2-2-2-2-
B:---------------------------------
[ Tab from: http://www.guitartabs.cc/tabs/0-9/311/flowing_btab.html ]
Riff 2:
=======

G:----------------------------
D:----------------------------
A:----------------------------
E:-1-222-3-444-111-2-4-5-444--
B:----------------------------

Riff 3:
=======

G:--------------------------------
D:--------------------------------
A:--------------------------------
E:-111-222-333-444-111-222-333-444
B:--------------------------------

(Listen for rhythm)

Riff 4:
=======

G:---------
D:---------
A:---------
E:-6-4-6-4-
B:---------

Ending:
=======

G:---
D:---
A:---
E:-2-
B:---

Comments