311 - First Straw Chords & Tabs

 

First Straw Chords & Tabs

311 Chords & Tabs

Version: 2 Type: Bass Tab 0 ratings
1 star 2 stars 3 stars 4 stars 5 stars
comments

First Straw Bass Tab

-----------------------------------------------------------------------------
			     First Straw - 311
-----------------------------------------------------------------------------

Tabbed By : R E H
e-mail: mushrmhd7777777@aol.com

Tuning: Standard EADG



G|----------------------------------------------------------|
D|-----------------------------2-----0-0-4444---------------|
A|---------2------2-2-2--3-3-3---3-3------------------------|
E|---3-3-3---3--3-------------------------------------------|

G|----------------------------------------------------------|
D|-----------------------------2-----0-0-4444---------------|
A|---------2------2-2-2--3-3-3---3-3------------------------|
E|---3-3-3---3--3-------------------------------------------|
[ Tab from: http://www.guitartabs.cc/tabs/0-9/311/first_straw_btab_ver_2.html ]
G|----------------------------------------------------------|
D|-----------------------------2-----0-0-4444---------------|
A|---------2------2-2-2--3-3-3---3-3------------------------|
E|---3-3-3---3--3-------------------------------------------|

G|----------------------------------------------------------|
D|-----------------------------2-----0-0-4444---------------|
A|---------2------2-2-2--3-3-3---3-3------------------------|
E|---3-3-3---3--3-------------------------------------------|

G|----------------------------------------------------------|
D|--222-5-2-2-111-5-1-1-000-5-0-0-----5---5-----------------|
A|--------------------------------444---4---4/--------------|
E|----------------------------------------------------------|

still workin on next part, just haven't had time to finish it yet
Comments