311 - First Straw Chords & Tabs

 

First Straw Chords & Tabs

311 Chords & Tabs

Version: 1 Type: Bass Tab 0 ratings
1 star 2 stars 3 stars 4 stars 5 stars
comments

First Straw Bass Tab


artist:311
song:first straw
contact me at carfreakcc@aol.com


    /=slide down


    riff 1

    --3-3-3-------3-3----------------------------------------------------
    --------2-----------2-2-2------3-3-3----------3-3--------------------
    ----------------------------------------2-------------0-0--4-4-4-4---
    ---------------------------------------------------------------------


    riff  2
[ Tab from: http://www.guitartabs.cc/tabs/0-9/311/first_straw_btab.html ]
    ---------------------------------------------------------------------------------------------------------
    ---------------------------------------------------------0-0---7-0-7/1---5-5-5-5-5-----3-3-3-3-3-----3-3-
    -----2-2-2------2-2---1-1------1-1-1----0-0-0------0-0------------------------------7-------------5------
    -------------0--------------0-------------------0--------------------------------------------------------


    riff 1  x4
    riff 2  x1
    riff 1  x2
    riff 2  x1
    riff 1  rest of song

          This is not 311's most popular songs but it sure as crap has one of the coolest bass lines. Its an easy and
          fun song to play you just have to get the hang of it. HAVE FUN!!!

   
    
Comments