311 - Firewater Chords & Tabs

 

Firewater Chords & Tabs

311 Chords & Tabs

Version: 3 Type: Bass Tab

Firewater Bass Tab

   
Artist: 311
Song: Firewater
Album: 311 B-Side (1995)
Bassist: P-Nut
Tuning: B-E-A-D-G
Notes: This is the sped up or normal version of the song which is better then the 
       slo-mo version.

 x - Mute Note
 h - Hammer-On
 p - Pull-Off

Intro:
G|----------------------------------------------------|
D|----------------------------------------------------|
A|----1-0---------1-0---------1-0---------1-0---------|
E|--0-----3---0-0-----3---0-0-----3---0-0-----3--0-0--|
B|----------------------------------------------------|


Verse 1:
G|------------------------------------------------------------------|
D|------------------------------------------------------------------|
A|------------------------------------------------------------------|
E|--0-2-3--0-2-5-5--0-2-3--0-2-5-5--0-2-3--0-2-5-5--0-2-3--0-2-5-5--|
B|------------------------------------------------------------------|

G|--------------------------------------------------------|
D|--------------------------------------------------------|
A|--------------------------------------------------------|
E|--1-1--x3h5p3--1--1--x3h5p3--1-1--x3h5p3--1--1--x3h5p3--|
B|--------------------------------------------------------| (x2)

G|------------------------------------------------------------------|
D|------------------------------------------------------------------|
A|------------------------------------------------------------------|
E|--0-2-3--0-2-5-5--0-2-3--0-2-5-5--0-2-3--0-2-5-5--0-2-3--0-2-5-5--|
B|------------------------------------------------------------------|

G|--------------------------------------------------------|
D|--------------------------------------------------------|
A|--------------------------------------------------------|
E|--1-1--x3h5p3--1--1--x3h5p3--1-1--x3h5p3--1--1--x3h5p3--|
B|--------------------------------------------------------| (x2)


Chorus:
G|-----------------------------------------------|
D|-----------------------------------------------|
A|-------------4-5-4---4--------------4-5-4---4--|
E|--3-3-3--3-5-------5----3-3-3--3-5--------5----|
B|-----------------------------------------------|

G|-----------------------------------------------|
D|-----------------------------------------------|
A|-------------2-3-2---2-------------2-3-2---2---|
E|--1-1-1--1-3-------3----1-1-1--1-3-------3-----|
B|-----------------------------------------------|

G|-----------------------------------------------|
D|-----------------------------------------------|
A|-------------4-5-4---4--------------4-5-4---4--|
E|--3-3-3--3-5-------5----3-3-3--3-5--------5----|
B|-----------------------------------------------|

G|-----------------------------------------------|
D|-----------------------------------------------|
A|-------------2-3-2---2-------------2-3-2---2---|
E|--1-1-1--1-3-------3----1-1-1--1-3-------3-----|
B|-----------------------------------------------|

[ Tab from: http://www.guitartabs.cc/tabs/0-9/311/firewater_btab_ver_3.html ]
Verse 2:
G|------------------------------------------------------------------|
D|------------------------------------------------------------------|
A|------------------------------------------------------------------|
E|--0-2-3--0-2-5-5--0-2-3--0-2-5-5--0-2-3--0-2-5-5--0-2-3--0-2-5-5--|
B|------------------------------------------------------------------|

G|--------------------------------------------------------|
D|--------------------------------------------------------|
A|--------------------------------------------------------|
E|--1-1--x3h5p3--1--1--x3h5p3--1-1--x3h5p3--1--1--x3h5p3--|
B|--------------------------------------------------------| (x2)


Chorus:
G|-----------------------------------------------|
D|-----------------------------------------------|
A|-------------4-5-4---4--------------4-5-4---4--|
E|--3-3-3--3-5-------5----3-3-3--3-5--------5----|
B|-----------------------------------------------|

G|-----------------------------------------------|
D|-----------------------------------------------|
A|-------------2-3-2---2-------------2-3-2---2---|
E|--1-1-1--1-3-------3----1-1-1--1-3-------3-----|
B|-----------------------------------------------|

G|-----------------------------------------------|
D|-----------------------------------------------|
A|-------------4-5-4---4--------------4-5-4---4--|
E|--3-3-3--3-5-------5----3-3-3--3-5--------5----|
B|-----------------------------------------------|

G|-----------------------------------------------|
D|-----------------------------------------------|
A|-------------2-3-2---2-------------2-3-2---2---|
E|--1-1-1--1-3-------3----1-1-1--1-3-------3-----|
B|-----------------------------------------------|


Verse 3/Outro:                                                 _______
G|------------------------------------------------------------|       \
D|------------------------------------------------------------|        \
A|--1-0------------1-0------------1-0------------1-0---1-0----|         \
E|------3--0-0---0-----3--0-0---0-----3--0-0---0-----3-----3--|          \ 
B|------------------------------------------------------------|           \
                                                                        (x3)
G|--------------------------------------------------------|               /
D|--------------------------------------------------------|              /
A|-------------------------------------------------1-0----|             /
E|--1-1--3-3--5-5--3-3--1-1--1-1-1--3-3--5-5--3-3------3--|            /
B|--------------------------------------------------------|___________/

G|------------------------------------------------------------|
D|------------------------------------------------------------|
A|--1-0------------1-0------------1-0------------1-0---1-0----|
E|------3--0-0---0-----3--0-0---0-----3--0-0---0-----3-----3--|
B|------------------------------------------------------------|

G|------------------------------------------------------------------------------|
D|------------------------------------------------------------------------------|
A|-------------------------------------------------------1--0-------------------|
E|--1-1--3-3--5-5--3-3--1-1--1-1-1---3--3---5--5---3--3--------3---3--3--3--5~--|
B|------------------------------------------------------------------------------|