311 - Evolution Chords & Tabs

 

Evolution Chords & Tabs

311 Chords & Tabs

Version: 1 Type: Bass Tab 0 ratings
1 star 2 stars 3 stars 4 stars 5 stars
comments

Evolution Bass Tab

   
311 - Evolution
Tabbed By: rob
Soundsystem

Main Riff:
==========

G:-------------------------
D:-------------------------
A:-4-4-4-3-----------------
E:---------4-0-0-0-0-0-4-0-
B:-------------------------

Chorus:
=======
[ Tab from: http://www.guitartabs.cc/tabs/0-9/311/evolution_btab.html ]
G:------------------------------
D:------------------------------
A:------------------------------
E:-7-5-4-5-4-5-7--7-5-4-5-4-5---
B:----------------------------0-

Post-Chorus:
============

G:--------------------------------
D:--------------------------------
A:-------1-1-1--------------------
E:-3-3-3-------1-1-1--0-0-0-1-1-1-
B:--------------------------------

Hawaiian Part:
==============

G:------
D:------
A:------  (Goes from B to G to Gb)
E:-7///-
B:------


Submitted by Rob Byrd 
lbc311sk8er@msn.com
Comments