311 - Eons Chords & Tabs

 

Eons Chords & Tabs

311 Chords & Tabs

Version: 1 Type: Bass Tab 0 ratings
1 star 2 stars 3 stars 4 stars 5 stars
comments

Eons Bass Tab

   
'Eons' -- Bass Tab
Performed by 311
From the album "Soundsystem" on Capricorn Records
Music by:  C. Sexton
Lyrics by:  N. Hexum
(c) 1999 Hydroponic Music BMI
---------------
Tabbed by: Justin Reynolds (jxstylez@aol.com)
The 311 Guitar Archive -- http://chromosome.colorado.edu/311archive/


Intro/Verse:
============  

G:------------------------------------------------------------
D:------------------------------------------------------------
A:------------------------------------------------------------
E:-0-0-0-0--0-0-4-0-0-0-4-0-0-5--0-0-0-0--0-0-4-0-0-0-4-0-0-5-   
B:------------------------------------------------------------
[ Tab from: http://www.guitartabs.cc/tabs/0-9/311/eons_btab.html ]
G:------------------------------------------------------------
D:------------------------------------------------------------
A:------------------------------------------------------------
E:-0-0-0-0--0-0-4-0-0-0-3-0-0-2--0-0-0-0--0-0-4-0-0-0-3-0-0-2-
B:------------------------------------------------------------

Fill 1:
=======

G:----------------------
D:----------------------
A:----------------------
E:-1h3--1h3----1h3--1h3-
B:----------------------

Chorus A:
=========   

G:--------------------------------
D:--------------------------------
A:--------------------------------
E:-2------5------3------2-----(3)-
B:--------------------------------
(Play notes in () last time through.)

Chorus B:
=========  

G:----------------------|-----
D:----------------------|-----
A:----------------------|-----
E:-2-//--5--\\--0----5--|--5--
B:----------------------|-----
                         (Play last time)

Comments