311 - Down Chords & Tabs

 

Down Chords & Tabs

311 Chords & Tabs

Version: 9 Type: Tab 0 ratings
1 star 2 stars 3 stars 4 stars 5 stars
comments

Down Tab

   
Song: DOwn
Artist: 311
Tuning: Dropped D


intro
e|---------------------------------------------------|
B|---------------------------------------------------|
G|---------------------------------------------------|
D|-5/7-7-7-7-0-5-0-4-x-x-4-5-5-7-x-x-7-x-5-x-4-x-4-5-|
A|-5/7-7-7-7-0-5-0-4-x-x-4-5-5-7-x-x-7-x-5-x-4-x-4-5-|
D|-5/7-7-7-7-0-5-0-4-x-x-4-5-5-7-x-x-7-x-5-x-4-x-4-5-|

verse
e|---------------------------------------------------|
B|---------------------------------------------------|
G|---------------------------------------------------|
D|-5h7-7-7-7-x-5-x-4-x-x-4-5-5-7-x-x-7-x-5-x-4-x-4-5-|
A|-5h7-7-7-7-x-5-x-4-x-x-4-5-5-7-x-x-7-x-5-x-4-x-4-5-|
D|-5h7-7-7-7-x-5-x-4-x-x-4-5-5-7-x-x-7-x-5-x-4-x-4-5-|

e|---------------------------------------------------|
B|---------------------------------------------------|
G|---------------------------------------------------|
D|-5h7-7-7-7-x-5-x-4-x-x-4-5-5-7-x-x-7-x-5-4-5-4-x---|
A|-5h7-7-7-7-x-5-x-4-x-x-4-5-5-7-x-x-7-x-5-4-5-4-x---|
D|-5h7-7-7-7-x-5-x-4-x-x-4-5-5-7-x-x-7-x-5-4-5-4-x---|

chorus
e|---------------------------------------------------|
B|---------------------------------------------------|
G|---------------------------------------------------|
D|--2-2-2-2--2--6-6-6-4-4-4-6-6----------------------|
A|--2-2-2-2--2--6-6-6-4-4-4-6-6----------------------|
D|--2-2-2-2--2--6-6-6-4-4-4-6-6----------------------|
[ Tab from: http://www.guitartabs.cc/tabs/0-9/311/down_tab_ver_9.html ]
Interlude
e|---------------------------------------------------|
B|---------------------------------------------------|
G|---------------------------------------------------|
D|--4-4-4-2-x-x-x-2-3-4-2----------------------------|
A|--4-4-4-2-x-x-x-2-3-4-2----------------------------|
D|--2-2-2-2-x-x-x-2-3-4-2----------------------------|

e|---------------------------------------------------|
B|---------------------------------------------------|
G|---------------------------------------------------|
D|--2-2-2--2-2-2--2--2--2-2-3-4-2--------------------|
A|--2-2-2--2-2-2--2--2--2-2-3-4-2--------------------|
D|--2-2-2--2-2-2--2--2--2-2-3-4-2--------------------|

ending
e|---------------------------------------------------|
B|---------------------------------------------------|
G|---------------------------------------------------|
D|--4-4-4-2-x-x-x-2-3-4-2----------------------------| X4
A|--4-4-4-2-x-x-x-2-3-4-2----------------------------|
D|--2-2-2-2-x-x-x-2-3-4-2----------------------------|

e|---------------------------------------------------|
B|---------------------------------------------------|
G|---------------------------------------------------|
D|--2-x-4-4-4-2-x-x-x-2-3-4-2------------------------| X4
A|--2-x-4-4-4-2-x-x-x-2-3-4-2------------------------|
D|--2-x-2-2-2-2-x-x-x-2-3-4-2------------------------|

e|---------------------------------------------------|
B|---------------------------------------------------|
G|---------------------------------------------------|
D|--2-2-2--2-2-2--2--2--2-2-3-4-2--------------------| X4
A|--2-2-2--2-2-2--2--2--2-2-3-4-2--------------------|
D|--2-2-2--2-2-2--2--2--2-2-3-4-2--------------------|

i dont claim to be 100% correct but i think this is good
enough so that you can play along and have fun
Comments