311 - Down Chords & Tabs

 

Down Chords & Tabs

311 Chords & Tabs

Version: 8 Type: Tab 0 ratings
1 star 2 stars 3 stars 4 stars 5 stars
comments

Down Tab

 "Down" by 311

   Intro, Verse
 1----------------------------------------------------------
 2----------------------------------------------------------
 3----------------------------------------------------------
 4----------------------------------------------------------
 5--5/7-7-7-7---5---4-X-X-4-5---5/7-7-7-7---5---4-X-X-4-5-X-
 6--3/5-5-5-5-0-3-0-2-X-X-2-3-0-3/5-5-5-5-0-3-0-2-X-X-2-3-X-

   Verse Fill
 1------------------------------
 2------------------------------
 3------------------------------
 4------------------------------
 5--5/7-7-7-7---5---4-X-X-5-4-X-
 6--3/5-5-5-5-0-3-0-2-X-X-3-2-X-

   Chorus
 1------------------------------
 2------------------------------
 3------------------------------
 4------------------------------
 5--2-2-2-2-2-2-6-6-6-4-4-4-6-6-
 6--0-0-0-0-0-0-4-4-4-2-2-2-4-4-
[ Tab from: http://www.guitartabs.cc/tabs/0-9/311/down_tab_ver_8.html ]
   Interlude
 1------------------------------ play three times 
 2------------------------------
 3------------------------------
 4--4-4-4-2-X-X-X---------------
 5--4-4-4-2-X-X-X-2-3-4-2-X-X-X-
 6----------------2-3-4-0-X-X-X-

 1------------------------ play once
 2------------------------
 3------------------------
 4--4-4-4-2-X-X-X---------
 5--4-4-4-2-X-X-X-2-3-4-2-
 6----------------2-3-4-0-
  
 1------------------------- play three times, end on E5
 2-------------------------
 3-------------------------
 4-------------------------
 5--2--2-2-2-2-2-2-2-2-3-4-
 6--0--0-0-0-0-0-0-0-2-3-4-

   Bridge(keepin' my feet on the ground...)
   P.M.-------------------------)
 1------------------------------
 2------------------------------
 3------------------------------
 4------------------------------
 5------------------------------
 6--0-0-0-0-0-0-4-4-4-2-2-2-4-4-

    Outro (same as interlude, up to this part)

 1--------------------------
 2--------------------------
 3--------------------------
 4--4-4-4-2-2-2-------------
 5--4-4-4-2-2-2-2-3-4-2-2-2-
 6--------------2-3-4-0-0-0-

     Play the last part of the interlude to 
   end the outro part.

  Thats the entire song. Im pretty sure its write.
Comments