311 - Down Chords & Tabs

 

Down Chords & Tabs

311 Chords & Tabs

Version: 7 Type: Tab 0 ratings
1 star 2 stars 3 stars 4 stars 5 stars
comments

Down Tab

Down By 311
Tabbed by JOey Gross (spankmeimjewish@aol.com)

Intro maybe use a wah for effect

e------------------------------------------------------------------
B------------------------------------------------------------------
G------------------------------------------------------------------
D-5/-7-x-7-x-5-x-4-x-5---------------------------------------------
A-5/-7-x-7-x-5-x-4-x-5---------------------------------------------
E-3/-5-x-5-x-3-x-2-x-3---------------------------------------------

Verse is the same thang

Chorus

e------------------------------------------------------------------
B------------------------------------------------------------------
G------------------------------------------------------------------
D--2-2-2-2---66--44--66--------------------------------------------
A--2-2-2-2---66--44--66--------------------------------------------
E--0-0-0-0---44--22--44--------------------------------------------

Then comes verse again

Then Chorus then 

Fill 1
[ Tab from: http://www.guitartabs.cc/tabs/0-9/311/down_tab_ver_7.html ]
e------------------------------------------------------------------
B-------------------------------------------then repeat this-------
G------------------------------------------------------------------
D--4-4-x-x-x---2-2-x-x---4-4-x-x--2-2-x-x-------2-222-2-2-2-4/6----
A--4-4-x-x-x---2-2-x-x---4-4-x-x--2-2-x-x-------2-222-2-2-2-4/6----
E--2-2-x-x-x---0-0-x-x---2-2-x-x--0-0-x-x-------0-000-0-0-0-2/4----

then  verse
then chorus 
then do chorus but palm muted for when hes like "keep my feet on the ground"

then comes chorus again and then the final fill

Fill 2

e--------------------------------------------------------------------------
B---starts out the same----------------------------------------------------
G---------way as the first ------------------------------------------------
D------------fill but then------4/6-2----------------------2-222-2-2-2-4/6-
A-------------------------------4/6-2-repeat this and then-2-222-2-2-2-4/6-
E-------------------------------2/4-0----------------------0-000-0-0-0-2/4-

hit me back if you like it you know 311 is the best band ever
someone help me ou twith purpose though
Comments