311 - Down Chords & Tabs

 

Down Chords & Tabs

311 Chords & Tabs

Version: 5 Type: Tab 0 ratings
1 star 2 stars 3 stars 4 stars 5 stars
comments

Down Tab

   
#----------------------------------PLEASE NOTE---------------------------------#
#This file is the author's own work and represents their interpretation of the #
#song. You may only use this file for private study, scholarship, or research. #
#------------------------------------------------------------------------------##
Date: Sun, 17 Sep 1995 00:48:43 -0600
From: Michael M Slusarz 
Subject: TAB: Down by 311

'Down'
Performed by 311; From their album '311' on Capricorn Records
Music by: N. Hexum
Lyrics by: N. Hexum, D. Martinez
(c) 1995 Allegiance Music/Hydroponic Music BMI
Tabbed by: Michael Slusarz (slusarz@ucsu.colorado.edu)

Riff 1:
=3D=3D=3D=3D=3D=3D=3D
  A5       G5   F#5  G5
1:----------------------
2:----------------------
3:----------------------
4:7-7-7-7--5-5--4-4--5-5
5:7-7-7-7--5-5--4-4--5-5
6:5-5-5-5--3-3--2-2--3-3

Chorus:
=3D=3D=3D=3D=3D=3D=3D
  E5            G#5    F#5  G#5
1:-----------------------------
2:-----------------------------
3:-----------------------------
4:2-2-2-2--2-2--6-6-6--4-4--6-6
5:2-2-2-2--2-2--6-6-6--4-4--6-6
6:0-0-0-0--0-0--4-4-4--2-2--4-4
[ Tab from: http://www.guitartabs.cc/tabs/0-9/311/down_tab_ver_5.html ]
Bridge - Part A:
=3D=3D=3D=3D=3D=3D=3D=3D=3D=3D=3D=3D=3D=3D=3D=3D
  F#5 E5          F#5 G5  G#5 E5
1:-------x-x-x-x-----------------x-x-x-x
2:-------x-x-x-x-----------------x-x-x-x
3:-------x-x-x-x-----------------x-x-x-x
4:4---2--x-x-x-x--4///5///6---2--x-x-x-x
5:4---2--x-x-x-x--4///5///6---2--x-x-x-x
6:2---0--x-x-x-x--2///3///4---0--x-x-x-x


Bridge - Part B:
=3D=3D=3D=3D=3D=3D=3D=3D=3D=3D=3D=3D=3D=3D=3D=3D
  E5                F#5 G5  G#5 A5
1:--------------------------------
2:--------------------------------
3:-------------------------------
4:2-2-2-2-2-2-2-2---4---5---6---7-
5:2-2-2-2-2-2-2-2---4---5---6---7-
6:0-0-0-0-0-0-0-0---2---3---4---5-

Lyrics/Song Structure:
=3D=3D=3D=3D=3D=3D=3D=3D=3D=3D=3D=3D=3D=3D=3D=3D=3D=3D=3D=3D=3D=3D
---> Intro: Play Riff 1 w/Heavy distortion (x2)
---> Play Riff 1 over:
---> Play Chorus over:
---> Play Riff 1 over:
---> Play Chorus over:
---> Play Bridge - Part A (x4)
---> Play Bridge - Part B (x4)
---> Play Riff 1 over:
---> Play Chorus over:
---> Play Chorus (quiet) over:
---> Play Chorus over:
---> Play Bridge - Part A (x4)
---> Play Bridge - Part A - Add an extra E5 whenever E5 is played (x4)
---> Play Bridge - Part B (x4)
-- Michael Slusarz(slusarz@ucsu.colorado.edu)
Home Page - http://ucsu.colorado.edu/~slusarz/arnett21.html
University of Colorado at Boulder


Comments