311 - Down Chords & Tabs

 

Down Chords & Tabs

311 Chords & Tabs

Version: 2 Type: Tab 0 ratings
1 star 2 stars 3 stars 4 stars 5 stars
comments

Down Tab

Song:Down	
Band:311
Album:Blue
Transcribed by:Tyler Sartin


MAIN RIFF AND VERSE                Repeat till chorus
E -------------------------------------
B -------------------------------------
G -------------------------------------
D ---5/7-7-7-7--5--4--5---5/7-7-5--4--5
A ---5/7-7-7-7--5--4--5---5/7-7-5--4--5
E ---3/5-5-5-5--3--2--3---3/5-5-3--2--3
				Chill...

[ Tab from: http://www.guitartabs.cc/tabs/0-9/311/down_tab_ver_2.html ]
CHORUS
E ----------------------------
B ----------------------------
G ----------------------------
D ---2-2-2-2-2---6-6-6---4-4-4
A ---2-2-2-2-2---6-6-6---4-4-4
E ---0-0-0-0-0---4-4-4---2-2-2		Repeat 4 times




Bridge
E -----------------------------
B -----------------------------
G -----------------------------
D ---2-2-2-2-2-2-2-------------
A ---2-2-2-2-2-2-2-------------
E ---0-0-0-0-0-0-0---0-2h3h4---

i may have missed some parts but that's pretty much it
Comments