311 - Down Chords & Tabs

 

Down Chords & Tabs

311 Chords & Tabs

Version: 1 Type: Tab 0 ratings
1 star 2 stars 3 stars 4 stars 5 stars
comments

Down Tab

artist - 311
song - down
standard tuning
[ Tab from: http://www.guitartabs.cc/tabs/0-9/311/down_tab.html ]
main riff
-------------------------------------------------------------------
------------------------------------------------------------------
-------------------------------------------------------------------
-7-7-7-7-7--5-5--4-4--7-7------------------------------------------
-7-7-7-7-7--5-5--4-4--7-7-----------------------------------------
-5-5-5-5-5--3-3--2-2--5-5-----------------------------------------
chorus riff
-2-2-2-2-2------------------------------------------------------------
-2-2-2-2-2-------------------------------------------------------------
-2-2-2-2-2--------------------------------------------------------------
-2-2-2-2-2--6-6-6--4-4--6-6-6---------------------------------
-2-2-2-2-2--6-6-6--4-4--6-6-6---------------------------------
-0-0-0-0-0--4-4-4--2-2--4-4-4----------------------------------
1st part of bridge
------------------------------------------------------------------
-----------------------------------------------------------------
------------------------------------------------------------------
-4--2-x--4/5/6--2--x------------------------------------------
-4--2-x--4/5/6--2--x--------------------------------------------
-2--0-x--2/3/4--0--x--------------------------------------------

2nd part of bridge
-2--------4/5/6/7------------------------------------------
-2--x8----4/5/6/7--------------------------------------------
-0--------2/3/4/5-------------------------------------------
Comments