311 - Down South Chords & Tabs

 

Down South Chords & Tabs

311 Chords & Tabs

Version: 1 Type: Bass Tab 0 ratings
1 star 2 stars 3 stars 4 stars 5 stars
comments

Down South Bass Tab

   
'Down South' -- Bass Tab
Performed by 311
From the album "Unity" on What Have You? Records
Music by:  N. Hexum, C. Sexton, M. Watkins & T. Mahoney
Lyrics by:  N. Hexum, C. Sexton, M. Watkins & T. Mahoney
(c) 1991 Allegiance Music/Hydroponic Music BMI
---------------
Tabbed by: Justin Reynolds (iLLiHeXiLL@aol.com)
The 311 Guitar Archive -- http://chromosome.colorado.edu/311archive/Home.html

[ Tab from: http://www.guitartabs.cc/tabs/0-9/311/down_south_btab.html ]
Riff 1:
=======

G:--------
D:--------
A:------3-
E:-2--5---


Riff 2:
=======

G:----------
D:----------
A:-----4--6-
E:-5-7------


Riff 3:
=======

G:---------------
D:---------------
A:---------------
E:-5-7-5-7-5-7-8-


Riff 4:
=======

G:------------------
D:------------------
A:-2--4-2-----------
E:----------5--2--4-


== Last Updated:  December 13, 1997 ==
Comments