311 - Don't Tread On Me Chords & Tabs

 

Don't Tread On Me Chords & Tabs

311 Chords & Tabs

Version: 2 Type: Tab 0 ratings
1 star 2 stars 3 stars 4 stars 5 stars
comments

Don't Tread On Me Tab

   
"Don't Tread On Me" by 311

Music By: Nick Hexum, Tim Mahoney, Aaron Wills, Chad Sexton
Lyrics By: Nick Hexum, Doug Martinez

Tabbed by: Chris Gill
Email: CGill1403@aol.com

Tuning: E A D G B E

This is a demo version off of the upcoming album "Don't Tread On Me"

(these lyrics are extremely rough, they have changed from demo to demo but these are
the most recent from what I could make out)



Gtr 1- Clean
e|--0----0-0-0-0-0-0-2----2-2-2--2--2-0----0-0-0-0-0-0-0--0--0-0-0-0-0-3--|
B|--0----0-0-0-0-0-0-3----3-3-3--3--3-1----1-1-1-1-1-0-1--1--1-1-1-1-1-3--|
G|--0----0-0-0-0-0-0-2----2-2-2--2--2-0----0-0-0-0-0-0-2--2--2-2-2-2-2-0--|
D|--2----2-2-2-2-2---0----0-0-0--0--0-2----2-2-2-2-2---3--3--3-3-3-3-3-0--|
A|--2----2-2-2-2-2--------------------3----3-3-3-3-3---0--0--0-0-0-0-0-2--|
E|--0------------------------------------------------------------------3--|
Gtr 2- Some sort of effect used, not sure what
e|--0----------------2----2-----------0----------------0------------------|
B|--0----------------3------3---3-----1----1-----1-----1------------------|
G|--0----------------2--------2---2---0------0-----0---2------------------|
D|--2----------------0--------------0-2--------2-----2-3------------------|
A|--2---------------------------------3----------------0------------------|
E|--0---------------------------------------------------------------------|

Before you're pointing at me
There is a possibility
You better turn that thing around
A fist comes easily
So don't you tread on me
Cuz I will knock you down
e|--3-----3-----3-----3-----5-----5-----5-----5--|
B|--3-----3-----3-----3-----5-----5-----5-----5--|
G|--4-----4-----4-----4-----6-----6-----6-----6--|
D|-----------------------------------------------| x4 
A|-----------------------------------------------|clean
E|-----------------------------------------------|

Some days it seems not worth it
The fight in me is all gone
And I'm not trying to be perfect
But get just one damn thing done
Before I lose control
I pick myself off the floor
E|-x-x-3-x-x-3-x-x-3-x-x-3-x-x-5-x-x-5-x-x-5-x-x-5-|
B|-x-x-3-x-x-3-x-x-3-x-x-3-x-x-5-x-x-5-x-x-5-x-x-5-|
G|-x-x-4-x-x-4-x-x-4-x-x-4-x-x-6-x-x-6-x-x-6-x-x-6-|
D|-------------------------------------------------| x4
A|-------------------------------------------------|clean
E|-------------------------------------------------|
[ Tab from: http://www.guitartabs.cc/tabs/0-9/311/dont_tread_on_me_tab_ver_2.html ]
Before you're pointing at me
There is a possibility
You better turn that thing around
A fist comes easily
So don't you tread on me
Cuz I will knock you down
e|--3-----3-----3-----3-----5-----5-----5-----5--|
B|--3-----3-----3-----3-----5-----5-----5-----5--|
G|--4-----4-----4-----4-----6-----6-----6-----6--|
D|-----------------------------------------------| x4
A|-----------------------------------------------|clean
E|-----------------------------------------------|


Never come a day that I solve you
Consequently I could not believe you
If a shadow of those moving battleships
I love talking new
I'm ready for the phone
(BASS ONLY)

(cant make out what SA says here)
e|-----------------------|
B|-----------------------|
G|-----------------------|
D|--7-----5-----3-----2--| w/ dist
A|--7-----5-----3-----2--|
E|--5-----3-----1-----0--|

Oh, there's a clock in my head
It's just fine what it says
There's another one on the wall
They don't agree at all
And there's a kick in the knee
It's just fine what you see
You might see me as calm
But I already said I could fall
e|-----------------------------------|     e|---------------------|
B|-----------------------------------|     B|---------------------|
G|-----------------------------------|     G|---------------------|
D|--7---7---5--7---7---3---3--3---5--| x3  D|--3/---3/---3/---3/--|  both parts x2
A|--7---7---5--7---7---3---3--3---5--|then A|--3/---3/---3/---3/--|  w/ dist
E|--5---5---3--5---5---1---1--1---3--|     E|--1/---1/---1/---1/--|

Before you're pointing at me
There is a possibility
You better turn that thing around
A fist comes easily
So don't you tread on me
Cuz I will knock you down
e|--3-----3-----3-----3-----5-----5-----5-----5--|
B|--3-----3-----3-----3-----5-----5-----5-----5--|
G|--4-----4-----4-----4-----6-----6-----6-----6--|
D|-----------------------------------------------| x4
A|-----------------------------------------------|clean
E|-----------------------------------------------|

Oh, in the comfort of strangers
You don't see the danger
Of just letting it go
This I know
(BASS ONLY)

Before you're pointing at me
There is a possibility
You better turn that thing around
A fist comes easily
So don't you tread on me
Cuz I will knock you down
e|--3-----3-----3-----3-----5-----5-----5-----5--|
B|--3-----3-----3-----3-----5-----5-----5-----5--|
G|--4-----4-----4-----4-----6-----6-----6-----6--|
D|-----------------------------------------------| x4
A|-----------------------------------------------|clean
E|-----------------------------------------------|


| /  slide up
| \  slide down
| h  hammer-on
| p  pull-off
| ~  vibrato
| +  harmonic
| x  Mute note
===============================================================================
Comments