311 - Dlmd Chords & Tabs

 

Dlmd Chords & Tabs

311 Chords & Tabs

Version: 2 Type: Bass Tab 0 ratings
1 star 2 stars 3 stars 4 stars 5 stars
comments

Dlmd Bass Tab

   
'DLMD' -- Bass Tab
Performed by 311
From the album "311" on Capricorn Records
Music by:  N. Hexum
Lyrics by:  N. Hexum and SA Martinez
(c) 1995 Capricorn Records
---------------
Tabbed by: Jeremy Daw (summit@rideau.net)
The 311 Guitar Archive -- http://chromosome.colorado.edu/311archive/Home.html


First Note:
===========

G:---
D:---
A:---
E:-3-
B:---


Intro:
======

G:-----------------------------
D:-----------------------------
A:-5-3--------------5-3--------
E:-----5--3--1--5--------5---3-
B:-----------------------------


Intro (last time through):
==========================
[ Tab from: http://www.guitartabs.cc/tabs/0-9/311/dlmd_btab_ver_2.html ]
G:--------------------------------------
D:--------------------------------------
A:-5-3----------------------------------
E:-----5--3--1--5--6-6-6-6-6-6-6-6--5//-
B:--------------------------------------


Riff 1:
=======

G:-----------------------------------
D:-----------------------------------
A:-----------------------------------
E:---------------------------1-1-----
B:-3-1-3-1--3-1-3-1--3-1-3-1-----1-3-


Chorus:
=======

G:-----------------------------------------
D:-----------------------------------------
A:-7-5-----------7-5-----------------------
E:-----7-5-3-2-------7-5-3-2-2--2-2--2-2-2-
B:-----------------------------------------


Ending:
=======

G:------------------------
D:------------------------
A:------------------------
E:-0-2-2--2--0-2-2--0-2-2-
B:------------------------


Last Note:
==========

G:---
D:---
A:---
E:---
B:-3-


== Last Updated:  November 3, 1997 ==
Comments