311 - Dancehall Chords & Tabs

 

Dancehall Chords & Tabs

311 Chords & Tabs

Version: 1 Type: Bass Tab

Dancehall Bass Tab

   
Artist: 311
Song: Dancehall
Album: Enlarged to Show Detail 2 EP (2001)
Bassist: P-Nut
Tuning: B-E-A-D-G

Intro:
G|--------------------------------------|
D|--------------------------------------|
A|----------3-0----------------3-0------|
E|--0--0--------1-0----0--0--------1-0--| 
B|--------------------------------------| (x2)


Verse 1:
G|--------------------------------------|
D|--------------------------------------|
A|----------3-0----------------3-0------|
E|--0--0--------1-0----0--0--------1-0--| 
B|--------------------------------------| (x4)

G|-----------------------------|
D|-----------------------------|
A|-----------------------------|
E|--1--1---4--4---1--1---4--4--|
B|-----------------------------| (x4)


Chorus:
G|-------------------------|
D|-------------------------|
A|-------------------------|
E|--0-0--0--0-0-0--0--0-0--|
B|-------------------------| (x4)


Verse 2:
G|--------------------------------------|
D|--------------------------------------|
A|----------3-0----------------3-0------|
E|--0--0--------1-0----0--0--------1-0--| 
B|--------------------------------------| (x4)
[ Tab from: http://www.guitartabs.cc/tabs/0-9/311/dancehall_btab.html ]
G|-----------------------------|
D|-----------------------------|
A|-----------------------------|
E|--1--1---4--4---1--1---4--4--|
B|-----------------------------| (x4)


Outro:
G|-----------------------------------|
D|-----------------------------------|
A|-----------------------------------|
E|--12-12--12--0-12-12--12--0-12-12--|
B|-----------------------------------| (x4)

G|-----------------------------|
D|-----------------------------|
A|-----------------------------|
E|--1--1---4--4---1--1---4--4--|
B|-----------------------------| (x4)

G|-------------------------|
D|-------------------------|
A|-------------------------|
E|--0-0--0--0-0-0--0--0-0--|
B|-------------------------| (x4)

G|-----------------------------------------------------------|
D|-----------------------------------------------------------|
A|-----------------------------------------------------------|
E|--12-0--0-0-12-12--12-0-12-0---0-0--0-0-12-12--12-0-12-12--|
B|-----------------------------------------------------------|

G|--------------------------------------------------------------|
D|--------------------------------------------------------------|
A|-------------------------------------------------------10/11--|
E|--0-0--0-0-12-12--12-0-12-0---0-0--0-0-12-12--12-12-12--------|
B|--------------------------------------------------------------|