311 - Damn Chords & Tabs

 

Damn Chords & Tabs

311 Chords & Tabs

Version: 1 Type: Bass Tab 0 ratings
1 star 2 stars 3 stars 4 stars 5 stars
comments

Damn Bass Tab

'Damn' -- Bass Tab
Performed by 311
From the album "Unity" on What Have You? Records
Music by:  N. Hexum
Lyrics by:  N. Hexum
(c) 1991 Allegiance Music/Hydroponic Music BMI
---------------
Tabbed by: Justin Reynolds (iLLiHeXiLL@aol.com)
The 311 Guitar Archive -- http://chromosome.colorado.edu/311archive/Home.html

Riff 1:
=======
[ Tab from: http://www.guitartabs.cc/tabs/0-9/311/damn_btab.html ]
G:------------------------------
D:-2-----------2----------------
A:-----4---5------4---5///10-10-
E:------------------------------


Riff 2:
=======

G:-----------------
D:-----------------
A:-2---2-3---5---2-
E:-----------------


Riff 3:
=======

G:------------------------------------------------------------
D:--------------------------------------------------2---------
A:----------------------------------------------------1---1---
E:-0-3-1-0-3-1-0-1-0-3-1-0-3-1-0-1-0-3-1-0-3-1-0-1----------3-


== Last Updated:  December 13, 1997 ==
Comments