311 - Cutm Chords & Tabs

 

Cutm Chords & Tabs

311 Chords & Tabs

Version: 1 Type: Bass Tab 0 ratings
1 star 2 stars 3 stars 4 stars 5 stars
comments

Cutm Bass Tab

   
'C.U.T.M.' -- Bass Tab
Performed by 311
From the album "Unity" on What Have You? Records
Music by:  N. Hexum & A. Wills
Lyrics by:  N. Hexum
(c) 1991 Allegiance Music/Hydroponic Music BMI
---------------
Tabbed by: Justin (iLLiHeXiLL@aol.com)
The 311 Guitar Archive -- http://chromosome.colorado.edu/311archive/Home.html

*Follows guitar for most part*

Intro:
======

G:------
D:------
A:-5--5-
E:------

[ Tab from: http://www.guitartabs.cc/tabs/0-9/311/cutm_btab.html ]
Riff 1:
=======
   
G:----------------------------------------------------------------
D:-----------3-------------------------------------4------------3-
A:-5-5-x-4-5-5-5-x-5-5-x-4-5-x-5-5-x-5-6-6--5-5-xx-4-5-5-5--3-5---
E:----------------------------------------------------------------


Bridge:
=======

G:---------------------------------------
D:---------------------------------------
A:-5-5-5-4-4-4-3-3-3-2-2-2-3-3-3-4-4-4-5-
E:---------------------------------------


During First Solo:
==================

G:----------3-
D:----4-------
A:--5-----2---
E:------3-----

During Second Solo:
===================

G:--------4-----2---
D:------5---4-------
A:----6-----------3-
E:--3---------5-----

Riff 2:
=======

G:---------------------
D:---------------------
A:-------3-----1-------
E:-3--3-----3-----1--2-


== Last Updated:  January 8, 1997 ==
Comments