311 - Creatures Chords & Tabs

 

Creatures Chords & Tabs

311 Chords & Tabs

Version: 3 Type: Tab 0 ratings
1 star 2 stars 3 stars 4 stars 5 stars
comments

Creatures Tab

Artist: 311
Song: Creatures (For Awhile)
Tabber: me
Please Rate :)

Intro

E-------------------------------------
B-------------------------------------
G-------------------------------------
D--4-\-6--6-6-x-6-/-4-4-4-xx----------
A--4-\-6--6-6-x-6-/-4-4-4-xx----------
E--2-\-4--4-4-x-4-/-2-2-2-xx----------

E------------------------------
B------------------------------
G------------------------------
D--4-6--6--6--6-4-x-4-x-4------
A--4-6--6--6--6-4-x-4-x-4------
E--2-4--4--4--4-2-x-2-x-2------

E------------------------------
B------------------------------
G------------------------------
D--4-6--6--6--6-4--------------
A--4-6--6--6--6-4--------------
E--2-4--4--4--4-2--------------

Pre-verse

E---------------------
B---------------------
G---------------------
D--4~-4~-4~-4~-3~-----
A--4~-4~-4~-4~-3~-----
E--2~-2~-2~-2~-1~-----

Verse w/ some weird effect then play it again w/
normal dis.

E--------------------------
B--------------------------
G--------------------------
D--------------------------
A--------------------------
E--1--1-1-4-4-1-1-xxx------

Mid-Verse
[ Tab from: http://www.guitartabs.cc/tabs/0-9/311/creatures_tab_ver_3.html ]
E-----------------------------
B-----------------------------
G-----------------------------
D--4-4-4-4-4-4-4-4-----x4-----
A--4-4-4-4-4-4-4-4------------
E--2-2-2-2-2-2-2-2------------

Chorus

E----------------------------------
B----------------------------------
G---------------------------------
D--6-xx-6-x-7-xx-6-x-4-x-6-x-------
A--6-xx-6-x-7-xx-6-x-4-x-6-x-------
E--4-xx-4-x-5-xx-4-x-2-x-4-x-------

-----------------------------------
-----------------------------------
------------x-4--------------------
---xx-4-x-6-x-4--------------------
---xx-4-x-6-x-2--------------------
---xx-2-x-4------------------------

Post Chorus  
        stop here  *   first time.   play the other 8 chords and harms at part near end only.
E------------------`---------------------
B------------------`---------------------
G------------------`---------------------
D--6---6---6---6---`-7---7---7---7-------
A--6---6---6---6---`-7---7---7---7-------
E--4-4-4-4-4-4-4-4-`-5-5-5-5-5-5-5-5-----
harm *   *   *   *     *   *   *   *   

the rest is just repeats.  u can figure out the order. its simple enough.

Ending

E-----------------------------
B-----------------------------
G-----------------------------
D--4~-4~-4~-4~-3~-------------
A--4~-4~-4~-4~-3~-------------
E--2~-2~-2~-2~-1~-------------
Comments