311 - Creatures Chords & Tabs

 

Creatures Chords & Tabs

311 Chords & Tabs

Version: 2 Type: Tab 0 ratings
1 star 2 stars 3 stars 4 stars 5 stars
comments

Creatures Tab

   
-------------------------------------------------------------------------------
                      CREATURES (FOR A WHILE) - 311                           
-------------------------------------------------------------------------------

Tabbed by: Matt Richards
Email: Matt2210@hotmail.com

Tuning: standard

I know this is still pretty rough but bear with me, it's a brand new song.
Please email me with corrections


Intro/Main riff
e|-------------------|
B|-------------------|
G|-8/6-66-x-6/4-44---|
D|-8/6-66-x-6/4-44---|
A|-6/4-44-x-4/2-22---|
E|-6/4-44-x-4/2-22---|  play x 3 then

e|-------------------|
B|-------------------|
G|-6/4-4-4-4-4-42-2--|
D|-6/4-4-4-4-4-42-2--|
A|-8/6-6-6-6-6-64-4--|
E|-8/6-6-6-6-6-64-4--|

Before 1st verse "The years of mischief"
e|---------------------------|
B|---------------------------|
G|-4--4--4--4----------------|
D|-4--4--4--4--3-------------|
A|-2--2--2--4--3---let ring--|
E|-2--2--2--2--1-------------|

Nick "is there ever a time..."
e|------|
B|------|
G|------|
D|-4----|
A|-2----|
E|-2----|

S.A. "Highly frustrated..."
e|------------------|
B|------------------|
G|------------------|
D|-3x3--666--1-xx---|
A|-3x3--666--1-xx---|
E|-1x1--444--3-xx---|

Nick "I'm not used to it..."
e|------|
B|------|
G|------|
D|-4----|
A|-2----|
E|-2----|

Chorus "I wanna make a mess..."
e|-------------------|
B|-------------------|
G|-------------------|
D|-6--4--4--xx6-4-6--|
A|-6--4--4--xx6-4-6--|
E|-4--2--6--xx4-2-4--|  play x 3 then

e|-------------------|
B|-------------------|
G|-------------------|
D|-xx6-4-6--xx6-4-6--|
A|-xx6-4-6--xx6-4-6--|
E|-xx4-2-4--xx4-2-4--|

[ Tab from: http://www.guitartabs.cc/tabs/0-9/311/creatures_tab_ver_2.html ]
"it comes and goes and comes and goes..."
e|------------------|
B|------------------|
G|------------------|
D|-7-x-7-x-7-x-7-x--|
A|-7-x-7-x-7-x-7-x--|
E|-5-x-5-x-5-x-5-x--| 

"sometimes..."
e|------------------|
B|------------------|
G|-8/6-66-x-6/4-44--|
D|-8/6-66-x-6/4-44--|
A|-6/4-44-x-4/2-22--|
E|-6/4-44-x-4/2-22--|  play x 3 then

e|-------------------|
B|-------------------|
G|-6/4-4-4-4-4-42-2--|
D|-6/4-4-4-4-4-42-2--|
A|-8/6-6-6-6-6-64-4--|
E|-8/6-6-6-6-6-64-4--|

e|----------------------------|
B|----------------------------|
G|-4--4--4--4-----------------|
D|-4--4--4--4--3--------------|
A|-2--2--2--4--3---let ring---|
E|-2--2--2--2--1--------------|

Nick "Itís something one wonít understand..."
e|----|
B|----|
G|----|
D|-4--|
A|-2--|
E|-2--|

S.A. "Donít buy the fear donít buy that my dear..."
e|-----------------|
B|-----------------|
G|-----------------|
D|-3x3--666--1-xx--|
A|-3x3--666--1-xx--|
E|-1x1--444--3-xx--|

Nick "Sometimes itís wearable sometimes is bearable..."
e|----|
B|----|
G|----|
D|-4--|
A|-2--|
E|-2--|

Chorus "I wanna make a mess..."
e|-------------------|
B|-------------------|
G|-------------------|
D|-6--4--4--xx6-4-6--|
A|-6--4--4--xx6-4-6--|
E|-4--2--6--xx4-2-4--|  play x 3 then

e|--------------------|
B|--------------------|
G|--------------------|
D|-xx6-4-6--xx6-4-6---|
A|-xx6-4-6--xx6-4-6---|
E|-xx4-2-4--xx4-2-4---|

"it comes and goes and comes and goes..."
e|------------------|
B|------------------|
G|------------------|
D|-7-x-7-x-7-x-7-x--|
A|-7-x-7-x-7-x-7-x--|
E|-5-x-5-x-5-x-5-x--| 

e|------------------|
B|------------------|
G|------------------|
D|-6-x-6-x-6-x-6-x--|
A|-6-x-6-x-6-x-6-x--|
E|-4-x-4-x-4-x-4-x--| 

and figure the rest out from herre

| /  slide up
| \  slide down
| h  hammer-on
| p  pull-off
| ~  vibrato
| +  harmonic
| x  Mute note
Comments