311 - Creatures Chords & Tabs

 

Creatures Chords & Tabs

311 Chords & Tabs

Version: 1 Type: Tab 4 ratings
1 star 2 stars 3 stars 4 stars 5 stars
comments

Creatures Tab

311
Creatures (For a While)
~Evolver~

	Yeah no one had a tab out for this and I was gettin pissed so I made one myself by watching the music video and when they played on Craig Kilborne. I tabbed this from watching the guitarist in the videos so it may be a little off but it does the trick....

Play this whole song with pretty heavy distortion except for the part with the weird space thing..

Intro
--------------------------------
--------------------------------
--------------------------------
---53--3-3-x-x--31--1-1-x-x---
---64--4-4-x-x--42--2-2-x-x--- 
---64--4-4-x-x--42--2-2-x-x---

Play this 3 times, then do this on the 4th time..

------------------------------------
------------------------------------
------------------------------------
---53--3-3-3--1-x-x-1----1-1-1-1---
---64--4-4-4--2-x-x-2----2-2-2-2---
---64--4-4-4--2-x-x-2----2-2-2-2---

The next part is played with some weird space effect..
 *(There is a mischeif...followed by weeks of ...)
------------------------------------------------------
------------------------------------------------------
------------------------------------------------------
------------------------------------------------------
------------------------------------------------------
---2-2-2--5-5--2-2-2--x-x----2-2-2--5-5--2-2-2--x-x---
[ Tab from: http://www.guitartabs.cc/tabs/0-9/311/creatures_tab.html ]
Play this with distortion, just listen to the song to see how many times to play it..
 *(Sometimes its wearable...sometimes its bearable..)
--------------------
--------------------
--------------------
--5-5-5-5-5-5-5-5---
--5-5-5-5-5-5-5-5---
--3-3-3-3-3-3-3-3---

This is where Martin starts rappin'..
 *(.......come monday morn'....you'll feel checkmated..)
-------------------------------
-------------------------------
-------------------------------
---4-x-4--5-5--4-x-x-x-x-x-x---
---4-x-4--5-5--4-x-x-x-x-x-x---
---2-x-2--3-3--2-x-x-x-x-x-x---

Play this part again until it leads into the chorus..
 *(.......sometimes it's do or die, until the glass is full)
--------------------
--------------------
--------------------
--5-5-5-5-5-5-5-5---
--5-5-5-5-5-5-5-5---
--3-3-3-3-3-3-3-3---

Now the chorus.
 *(I wanna make a mess, I wanna blow off stress..)
-----------------------------------------------------------
-----------------------------------------------------------
-----------------------------------------------------------
--8-7-x-5-x-7-x-5-x-x-x------------------------------------  
--8-7-x-5-x-7-x-5-x-x-x------------------------------------
--6-5-x-3-x-5-x-3-x-x-x------------------------------------

The song just pretty much repeats itself after that, it's not hard to find the pattern.
Keep in mind this is my version of the tab from watching it on tv, but if you have somethin that sounds better don't send it to me, just tab it your lazy ass self.
Peace,
 Z$
Comments