311 - Crack The Code Chords & Tabs

 

Crack The Code Chords & Tabs

311 Chords & Tabs

Version: 2 Type: Tab 0 ratings
1 star 2 stars 3 stars 4 stars 5 stars
comments

Crack The Code Tab

   
tuning: standard

intro:clean
e:--7-7-7-7--5-5-5-5--8-8-8-8--10-10-10-10----|
B:--8-8-8-8--6-6-6-6--6-6-6-6--8--8--8--8-----|
G:--7-7-7-7--7-7-7-7--5-5-5-5--7--7--7--7-----|
D:--------------------------------------------|
A:--------------------------------------------|
E:--------------------------------------------|


verse A: distortion
e:----------------------------------------|
B:-----------6-xx-6-xx--------------------|
G:---xx---xx-7-xx-7-xx---xx---xx----------|
D:-5-xx-5-xx-7-xx-7-xx-3-xx-3-xx-7-xx-9---|
A:-5-xx-5-xx-5-xx-5-xx-3-xx-3-xx-7-xx-9---|
E:-3-xx-3-xx-----------1-xx-1-xx-5----7---|

verse B:
e:------------------------------------|
B:--6-xx-6-xx-------------------------|
G:--7-xx-7-xx-------------------------|
D:--7-xx-7-xx---5-xx-5-xx---3-xx-3-xx-|
A:--5-xx-5-xx---5-xx-5-xx---3-xx-3-xx-|
E:--------------3-xx-3-xx---1-xx-1-xx-|  (Kinda fades after that)
[ Tab from: http://www.guitartabs.cc/tabs/0-9/311/crack_the_code_tab_ver_2.html ]
pre-chorus: distortion
e:-------------------------------------------------------------------|
B:-------------------------------------------------------------------|
G:-------5-5--------5-5--------5-5--------5-5--------5-5--------5-5--|
D:-7-7-7-5-5--7-7-7-5-5--7-7-7-5-5--7-7-7-5-5--7-7-7-5-5--7-7-7-5-5--|
A:-7-7-7------7-7-7------7-7-7------7-7-7------7-7-7------7-7-7------|
E:-5-5-5------5-5-5------5-5-5------5-5-5------5-5-5------5-5-5------|
  |p.m.|      |p.m.|     |p.m.|     |p.m.|     |p.m.|     |p.m.|

e:-----------------|
B:-----------------|
G:-----------------|
D:-7-7-7----9-9-9--|
A:-7-7-7----9-9-9--|
E:-5-5-5----7-7-7--|
   |p.m.|   |p.m.|

chorus: distortion
e:-------------------------------------------------------------------------|
B:-------------------------------------------------------------------------|
G:-----b5b-----5h0-----b5b-----b5b-----b5b-----5h0--------b5b---------b5b--|
D:-7-7-----7-7-----3-3-----3-3-----7-7-----7-7-----3--3-3------3--3-3------|
A:-5-5-----5-5-----3-3-----3-3-----5-5-----5-5-----3--3-3------3--3-3------|
E:-5-5-----5-5-----1-1-----1-1-----5-5-----5-5-----1--1-1------1--1-1------|

fill
e:--------------------|-------------|
B:--------------------|-------------|
G:--------------------|-------------|
D:-2--7--2--5--7--9---|--5----------|
A:-2--7--2--5--7--9---|--5----------|
E:-0--5--0--3--5--7---|--3----------|
                       (ending)


if i left something out, i'm sorry. i think this is pretty "o.k." for this song. have
with it.
Comments