311 - Crack The Code Chords & Tabs

 

Crack The Code Chords & Tabs

311 Chords & Tabs

Version: 1 Type: Tab 0 ratings
1 star 2 stars 3 stars 4 stars 5 stars
comments

Crack The Code Tab

   
Song Tittle: Crack The Code
Artist: 311
Album: Evolver
Label: Volcano Entertainment

Instrument: Guitar
Tabbed By: Anthony Cuellar Aka Unity Mix Up

Tuning: Dropped D ( D A D G B E)

Intro (Clean):
   G                                       
E|-7--7--7--7---5--5--5--5---8--8--8--8---8--8---10--10--||
B|-8--8--8--8---6--6--6--6---6--6--6--6---6--6---8---8---||
G|---7--7--7--7---7--7--7--7---7--7--7--7---7--7---12--12||
D|-------------------------------------------------------||
A|-------------------------------------------------------||
D|-------------------------------------------------------||

Verse (Heavy Distortion):
    
E|---------------------------------------------------------------||
B|-------------6-----6---------------1---------------------------||
G|--4-----4----7-----7----2-----2----2-----4----(1)--------------||
D|--5-----5----7-----7----3-----3----2-----5----(2)--------------||
A|--5-----5----5-x-x-5----3-----3----0-x-x-5----(2)--------------||
D|--5-x-x-5---------------3-x-x-3----------5----(2)--------------||

[ Tab from: http://www.guitartabs.cc/tabs/0-9/311/crack_the_code_tab.html ]
Pre-Chorus (Heavy Distortion):
  
E|-------0-0--------0-0--------0-0--------0-0--------0-0--------0-0---||
B|-------1-1--------1-1--------1-1--------1-1--------1-1--------1-1---||
G|--------------------------------------------------------------------||
D|-2-2-2------2-2-2------2-2-2------2-2-2------2-2-2------2-2-2-------||
A|-0-0-0------0-0-0------0-0-0------0-0-0------0-0-0------0-0-0-------||
D|--------------------------------------------------------------------||
   E
E|-0-------0--0-------0------||
B|-0-------0--0-------0------||
G|-1-------1--1-------1------||
D|-2-------2--2-------2------||
A|-2-2-2-2-2--2-2-2-2-2------||
D|-2-2-2-2-2--2-2-2-2-2------||

Chorus (Heavy Distortion):
   
E|-------------------------------------------------------------||
B|-------------------------------------------------------------||
G|-----5------5------5-----5------5------5------5------5-------||
D|-0-0----0-0----3-3---3-3----0-0----0-0----3-3----3-3---------||
A|-0-0----0-0----3-3---3-3----0-0----0-0----3-3----3-3---------||
D|-0-0----0-0----3-3---3-3----0-0----0-0----3-3----3-3---------||
   
E|------------------------------------------------------------||
B|------------------------------------------------------------||
G|-----5------5------5------5--1~-----------------------------||
D|-0-0----0-0----3-3----3-3----2~---(/7/9\5)--7/9\5-----------||
A|-0-0----0-0----3-3----3-3----2~-------------7/9\5-----------||
D|-0-0----0-0----3-3----3-3----2~-------------7/9\5-----------||

()'s played by another guitar at the same time as the matching chords

Well there It Is. Hope You Enjoy. Please Correct Any Mistakes
"Stay Positive And Love Your Life"
-Anthohy
Comments