311 - Crack The Code Chords & Tabs

 

Crack The Code Chords & Tabs

311 Chords & Tabs

Version: 2 Type: Bass Tab

Crack The Code Bass Tab

this song was made for a 5 string...but if you dont have one...this is how it is done.
Havnt quite got the transition down...it is way off...but this is a hell of a lot better
then the other tab. the breaks in teh bars arnt meant for the measure, but for different
riffs
                                                            x6 
G|----------------|-------------|-------------|-------------|
D|----0h5-9-7-5-3-|---0h5-7-5-3-|---0h5-7-5-3-|----2--0-4--o|
A|----------------|-------------|-------------|-0-3--2-----o|
E|--3-------------|-1-----------|-1-----------|-------------|
[ Tab from: http://www.guitartabs.cc/tabs/0-9/311/crack_the_code_btab_ver_2.html ]
 transition (1:01)           x3 
G|-------------|-------------| |------------|
D|------2-0----|----2-0-2-0-o| |-2-0-0--0-2-|
A|----2------2-|-0-3--------o| |------------|
E|-0-3---------|-------------| |------------|
  (1:43)                              x2                               x2
G|-------------------------------------||---------------|---------------|
D|------------------------------------o||o-0-0-0--0-0-0-|-0-0-0--0-0-0-o|
A|-000-000-000-000-----000-000-000000-o||o--------------|--------------o|
E|-----------------0-1-----------------||---------------|---------------|

G|-------------|                                 |--------|
D|-0-0-0-2-0-5-|                                 |--------|
A|-------------| Song repeats...last note of song|---0----|
E|-------------|                                 |--------|