311 - Come Original Chords & Tabs


Come Original Chords & Tabs

311 Chords & Tabs

Version: 4 Type: Tab 0 ratings
1 star 2 stars 3 stars 4 stars 5 stars

Come Original Tab

Come Original
by 311
Tabbed by Geiger Powell

Copyright 311, probably


This part isn't hard to play. Just listen to how it's played in the song.

E --5--------5--------I-----------------------------I
B --5--------5--------I-----------------------------I
G --7--------7--------I--7-6--4--2--1--2--1---------I
D --7--------7--------I----------------------4-2/---I
A --5--------5--------I-----------------------------I
E --5--------5--------I-----------------------------I
	Play this part 4 times


Easy, easy.
[ Tab from: http://www.guitartabs.cc/tabs/0-9/311/come_original_tab_ver_4.html ]
E -----------------------------I------------------------------I
B -----------------------------I------------------------------I
G -----------------------------I------------------------------I
D -----------------------------I------------------------------I
A --5-5--5--5--5-9-9--9--9--9--I--7-7--7--7--7--7-7--6--6--6--I
E --3-3--3--3--3-7-7--7--7--7--I--5-5--5--5--5--5-5--4--4--4--I
	Play this a bunch of times. You also play it during the verses.

When he says, "Warning to the crews..." play this:

E -----------------------I-----------------------I
B -----------------------I-----------------------I
G -----------------------I-----------------------I
D -----------------------I-----------------------I
A ---2----2----2----2----I---2----2----2----2----I
E ---0----0----0----0----I---0----0----0----0----I

Interlude or bridge-

A little like this--I haven't figured out the whole thing

E ---------------------I---------------I
B ---------------------I---------------I
G -----4----/7---------I----4-------2--I
D --2------------7-----I-5------4------I
A ---------------------I---------------I
E ---------------------I---------------I
	I believe another guitar is overdubbing this part an octave lower, but it 
could be bass

The ending is similar to the power chords in the chorus