311 - Come Original Chords & Tabs

 

Come Original Chords & Tabs

311 Chords & Tabs

Version: 1 Type: Tab 1 rating
1 star 2 stars 3 stars 4 stars 5 stars
comments

Come Original Tab

311
Come Original



|---------------------------------------------------------------------|
|---------------------------------------------------------------------|
|---7---7-----7------------------7-6-4--------------------------------| {x3} 
|---7---7-----7--------------------------7-6-7-6-4--------------------|
|---5---5-----5-(let bar 5 ring)--------------------7-----------------|
|---------------------------------------------------------------------|
[ Tab from: http://www.guitartabs.cc/tabs/0-9/311/come_original_tab.html ]
|---------------------------------------------------------------------|
|---------------------------------------------------------------------|
|---7-6-4-------------4-7---------------------------------------------|
|-----------7-6-7-6---------------------------------------------------|
|---------------------------------------------------------------------|
|---------------------------------------------------------------------|
                           
Chorus
|---------------------------------------------------------------------|
|---------------------------------------------------------------------|
|---------------------------------------------------------------------|
|--5-5-5-5---5-----9-9-9-9---9------7-7-7-7--7-7-7-7--6-6-------------|
|--5-5-5-5---5-----9-9-9-9---9------7-7-7-7--7-7-7-7--6-6-------------|
|--3-3-3-3---3-----7-7-7-7---7------5-5-5-5--5-5-5-5--4-4-------------|

Rap Part
|---------------------------------------------------------------------|
|---------------------------------------------------------------------|
|---------------------------------------------------------------------|
|--2------------------------------------------------------------------|
|--2------------------------------------------------------------------|
|--0------------------------------------------------------------------|        Play as needed          

Interlude
|---------------------------------------------------------------------|
|---------------------------------------------------------------------|
|-----4---7--------4--------------------------------------------------|
|-7---------7---5------4--7-------------------------------------------|
|---------------------------------------------------------------------|
|---------------------------------------------------------------------|


Tabbed by jolavlev@hotmail.com
Comments