311 - Champagne Chords & Tabs

 

Champagne Chords & Tabs

311 Chords & Tabs

Version: 2 Type: Tab 0 ratings
1 star 2 stars 3 stars 4 stars 5 stars
comments

Champagne Tab

 "Champagne" by 311

   Intro, Verse

 e--12\9--------------------10\7----------------
 B-------10----------------------8--------------
 G----------11---------------------9------------
 D-------------12-11/12\11-----------10-9/10\9--
 A----------------------------------------------
 E----------------------------------------------
[ Tab from: http://www.guitartabs.cc/tabs/0-9/311/champagne_tab_ver_2.html ]
   Chorus
 
 e--8--8--8--8--8--8--8--8--7-7-7-7-7-7-7-7-
 B--10-10-10-10-10-10-10-10-5-5-5-5-5-5-5-5-
 G--9--9--9--9--9--9--9--9--6-6-6-6-6-6-6-6-
 D--10-10-10-10-10-10-10-10-7-7-7-7-7-7-7-7-
 A------------------------------------------
 E------------------------------------------

 e--8--8--8--8--8--8--8--8--7-7-7-7-7-7-7-7--/9--9--9---
 B--10-10-10-10-10-10-10-10-5-5-5-5-5-5-5-5--/10-10-10--
 G--9--9--9--9--9--9--9--9--6-6-6-6-6-6-6-6-------------
 D--10-10-10-10-10-10-10-10-7-7-7-7-7-7-7-7-------------
 A------------------------------------------------------
 E------------------------------------------------------

   Outro (Never understand...)

 e--14--14------------
 B--12-----15--12--14-
 G------13-16------13-
 D-----------------14-
 A-----------------12-
 E--------------------

 That's pretty much the whole thing.
Comments