311 - Champagne Chords & Tabs

 

Champagne Chords & Tabs

311 Chords & Tabs

Version: 1 Type: Tab 0 ratings
1 star 2 stars 3 stars 4 stars 5 stars
comments

Champagne Tab

           
(Ellie Burack)         311...   "CHAMPAGNE"   

Its a cool little song to play. (standard tunning)


      
 {INTRO}      These two bars are played for the intro and verse

      
      e----12----9----------------------------------------------|
      b--------------10-----------------------------------------|
      g------------------11-------------------------------------|
      d----------------------12--11-^-12--11--------------------|
      a---------------------------------------------------------|
      E---------------------------------------------------------|


[ Tab from: http://www.guitartabs.cc/tabs/0-9/311/champagne_tab.html ]
      
      e----10---7-----------------------------------------------|
      b-------------8-------------------------------------------|
      g-----------------9---------------------------------------|
      d---------------------10--9-^-10--9-----------------------|
      a---------------------------------------------------------|
      E---------------------------------------------------------|


     CHORUS-BRIDGE         you can hear the chord changes

      e-----8-----------------------7---------------------------|
      b-----10----------------------5---------------------------|
      g-----9-----------------------6---------------------------|
      d-----9-----------------------7---------------------------|
      a---------------------------------------------------------|
      E---------------------------------------------------------|



     {ENDING}      Strike each note the way its heard on the song

      e---------------------------------------------------------|
      b---10------9--------12------End With--(--14~~--)---------|
      g---------------11---------------------(--13~~--)---------|
      d--------------------------------------(--14~~--)---------|
      a--------------------------------------(--12~~--)---------|
      E---------------------------------------------------------|
Comments