311 - Champagne Chords & Tabs

 

Champagne Chords & Tabs

311 Chords & Tabs

Version: 1 Type: Bass Tab 0 ratings
1 star 2 stars 3 stars 4 stars 5 stars
comments

Champagne Bass Tab

     Song: Champagne
     Band: 311
     Tabbed By: Bucko (bassmanbucko@yahoo.com)

Riff 1:

G:-------------------------------------------------------------------
D:-------------------------------------------------------------------
A:-0---------------0---0---4-0-------------------------------0-------
E:-------------------3---3-----------3---------------3-2-3-----3-----
B:-------------------------------------------------------------------

G:-----------------------------------------------------------------
D:-----------------------------------------------------------------
A:---------------0-----------------------------2-----------4-4-4-4-
E:-2-------------------2-----------3-------------------------------
B:-----------------------------------------------------------------

Riff 2:
[ Tab from: http://www.guitartabs.cc/tabs/0-9/311/champagne_btab.html ]
G:----------------------------------------------------------------
D:----------------------------------------------------------------
A:---------------0-----------------0-------------------0----------
E:-1-------------------3-------0-----------------0-----------0----
B:----------------------------------------------------------------

G:-----------------------------------------------------------------
D:-----------------------------------------------------------------
A:---------------0-----------------0-----------2-----------4-4-4-4-
E:-1-------------------3-------------------------------------------
B:-----------------------------------------------------------------

Ending Riff:

G:---------------------------------------
D:-0-------------------------------------
A:---------4---------------0-------0-----
E:---------------------------------------
B:-----------------3----------
Comments