311 - Cali Soca Second Guitar Chords & Tabs

 

Cali Soca Second Guitar Chords & Tabs

311 Chords & Tabs

Version: 1 Type: Tab 0 ratings
1 star 2 stars 3 stars 4 stars 5 stars
comments

Cali Soca Second Guitar Tab

   
Song: Cali Soca (Soundsystem Pre-Production Release)
By: 311
Tabbed By: David Moyer  AIM: bigheadpirate

SECOND GUITAR TAB!!!!!!!!!!
Only top 3 strings used; standard tuning.
This tab is for second guitar on the pre-production version
that can be downloaded from the 311 official website.  
There is another guitar part on top of the bass solo; you can 
hear it best right at the beginning of the solo, but it is not 
the second part because it continues when 2nd comes in.
This file is all my own work; no I didn't steal it from a book
because I have adequate musical ability.


e|--------------------------------------|--------------------------------
b|----------------10----------13--13----|------10-----10---------13--13--
g|--9-9-9------10----10----9------------|--9-9-----10----10---9----------


e|--------------------------------------|--------------------------------
b|-----------10---------13--13----------|---------------13---------------
g|--9-9---10----10---9------------------|---9-9-9----12------------------


e|--------------------10----------------|--------------------10----------
b|-----------------11----13-13-10-------|-----------------11----13-10----
g|-10-10-10---9-12----------------10----|---10-10-10-9-12-------------10-


e|--------------------10----------------|--------------------10----------
b|-----------------11----13-13-10-------|-----------------11----13-------
g|-10-10-10---9-12----------------10----|---10-10-10-9-12----------------


e|---------10----------------12-10------
b|------11----13-------10-13------------  
g|-9-12-------------10------------------


e|---------10----10----------12-10------
b|------11----13-------10-13------------  2 times
g|-9-12-------------10------------------

[ Tab from: http://www.guitartabs.cc/tabs/0-9/311/cali_soca_second_guitar_tab.html ]
e|---------10----10--10/12--10----10----
b|------11----13---------------13----13-
g|-9-12---------------------------------


e|-x-x-12-12-12-12-x-x-12-12-12-12-x-x-12-12-
b|-x-x-13-13-13-13-x-x-13-13-13-13-x-x-13-13-
g|-x-x-12-12-12-12-x-x-12-12-12-12-x-x-12-12-

e|-x-x-10-10-10-10-x-x-10-10-10-10-x-x-10-10-
b|-x-x-10-10-10-10-x-x-10-10-10-10-x-x-10-10-  3 times
g|-x-x-10-10-10-10-x-x-10-10-10-10-x-x-10-10-

1st time:
e|-x-x-12-12-12-12-x-x-12-12-12-12-x-x-12-12--10-10---10---10---10-
b|-x-x-13-13-13-13-x-x-13-13-13-13-x-x-13-13--10-10---10---10---10-
g|-x-x-12-12-12-12-x-x-12-12-12-12-x-x-12-12--10-10---10---10---10-

repeat from beginning

2nd time:
e|-x-x-12-12-12-12-x-x-12-12-12-12-x-12-12-12--13-13---13---13---13-
b|-x-x-13-13-13-13-x-x-13-13-13-13-x-13-13-13--13-13---13---13---13-
g|-x-x-12-12-12-12-x-x-12-12-12-12-x-12-12-12--14-14---14---14---14-


sweet bass solo


e|-12-12-12-12-x-x-12-12-12-12-x-x-12-12-
b|-13-13-13-13-x-x-13-13-13-13-x-x-13-13-
g|-12-12-12-12-x-x-12-12-12-12-x-x-12-12-

e|-x-x-10-10-10-10-x-x-10-10-10-10-x-x-10-10-
b|-x-x-10-10-10-10-x-x-10-10-10-10-x-x-10-10-  
g|-x-x-10-10-10-10-x-x-10-10-10-10-x-x-10-10-


e|-12-12-12-12-x-x-12-12-12-12-x-x-12-12-x-x-10-10---10---10---10-
b|-13-13-13-13-x-x-13-13-13-13-x-x-13-13-x-x-10-10---10---10---10-
g|-12-12-12-12-x-x-12-12-12-12-x-x-12-12-x-x-10-10---10---10---10-


e|-12-12-12-12-12-12-12-12-12-12-12-12-12-12-12-12-
b|-13-13-13-13-13-13-13-13-13-13-13-13-13-13-13-13-
g|-12-12-12-12-12-12-12-12-12-12-12-12-12-12-12-12-

e|-10-10---10---10---10\-
b|-10-10---10---10---10\-  3 times
g|-10-10---10---10---10\-

e|-12-12-12-12-12-12-12-12-12-12-12-12-12-12-12-12-13-13---13---13---13\-
b|-13-13-13-13-13-13-13-13-13-13-13-13-13-13-13-13-13-13---13---13---13\-
g|-12-12-12-12-12-12-12-12-12-12-12-12-12-12-12-12-14-14---14---14---14\-
Comments