311 - Buster 101 Chords & Tabs

 

Buster 101 Chords & Tabs

311 Chords & Tabs

Version: 1 Type: Tab 0 ratings
1 star 2 stars 3 stars 4 stars 5 stars
comments

Buster 101 Tab

   
“Buster 101” by 311

Music By: Nick Hexum, Tim Mahoney, Aaron Wills, Chad Sexton

Tabbed by: Chris Gill
Email: CGill1403@aol.com

This was a demo from “don’t tread on me”, hit me up on AIM if you would like to hear it

Tuning: E A D G B E
[ Tab from: http://www.guitartabs.cc/tabs/0-9/311/buster_101_tab.html ]
e|-----------------------------------------------------------------------------------|
B|-----------------------------------------------------------------------------------|
G|-----------------------------------------------------------------------------------|
D|------2--2----2---2---------2--2----2---2---------2--2----2---2-----5---5----2---2-|
A|-3h5----------2---2----3h5----------2---2----3h5----------2---2-----5---5----2---2-|
E|--------------0---0-----------------0---0-----------------0---0-----3---3----0---0-|
               PM......              PM......              PM.........................

e|--------------------------------------------------------------------------------------------|
B|--------------------------------------------------------------------------------------------|
G|--------------------------------------------------------------------------------------------|
D|------2--2----2---2---------2--2----2---2---------2--2----2---2---2--5--5--4--4--3--3--2--2-|
A|-3h5----------2---2----3h5----------2---2----3h5----------2---2---2--5--5--4--4--3--3--2--2-|
E|--------------0---0-----------------0---0-----------------0---0---0--3--3--2--2--1--1--0--0-|
               PM......              PM......              PM.................................


| /  slide up
| \  slide down
| h  hammer-on
| p  pull-off
| ~  vibrato
| +  harmonic
| x  Mute note
===============================================================================

Comments