311 - Bomb The Town Chords & Tabs

 

Bomb The Town Chords & Tabs

311 Chords & Tabs

Version: 1 Type: Tab 0 ratings
1 star 2 stars 3 stars 4 stars 5 stars
comments

Bomb The Town Tab

   
'Bomb the Town'
Performed by 311
From the album/video "Enlarged to Show Detail 2" 

Intro/Verse 1 (w/Octaver):
==========================
   N.C.
e:----------|-----
B:----------|-----
G:----------|-----
D:-------1--|-----
A:-----3----|-----
E:-1-1------|--1b-
            | * Only play at end of intro

Verse 2 (w/slight palm muting):
===============================
   N.C.
e:---------------------------
B:---------------------------
G:---------------------------
D:---------------------------
A:---------------------------
E:-0-0-0-0-1-0-3-0-2-1-0-2-0-
[ Tab from: http://www.guitartabs.cc/tabs/0-9/311/bomb_the_town_tab.html ]
Chorus:
=======
   E5     G5 E5     A5     G5    F#5   G5
e:-------------------------------------------
B:-------------------------------------------
G:-------------------------------------------
D:-------------------------------------------
A:-2-2-2--2--2-2-2--7-7-7--5-5-5-4-4-4-5-5-5- 
E:-0-0-0--3--0-0-0--5-5-5--3-3-3-2-2-2-3-3-3- 

   E5     G5 E5     A5  G5  F#5 G5
e:--------------------------------
B:--------------------------------
G:--------------------------------
D:--------------------------------
A:-2-2-2--2--2-2-2--7---5---4---5-
E:-0-0-0--3--0-0-0--5---3---2---3-


Ending: 
=======
   E5   G5->F#5->E5
e:---------------------
B:---------------------
G:---------------------
D:---------------------
A:-2-2--5-4-2--2--2--2-
E:-0-0--3-2-0--0--0--0-
Comments