30 Seconds To Mars - Was It A Dream Chords & Tabs

 

Was It A Dream Chords & Tabs

30 Seconds To Mars Chords & Tabs

Version: 1 Type: Tab 0 ratings
1 star 2 stars 3 stars 4 stars 5 stars
comments

Was It A Dream Tab

Artist: 30 Seconds To Mars
Song: Was It a Dream
Tabbed by: KirSy_@hotmail.com

Almost for sure that this is not the tune that 30 Secs use, but it's what I use.
"Translate" it. ;)

Intro/verse
Eb:---------------------------------------|
Bb:---------------------------------------|
Gb:---------------------------------------|
Db:------3---4---3--------6---------6-----|
Ab:--1-1---1---1-----4-4------4--4--------|
Eb:---------------------------------------|

Eb:--------------------------------------|
Bb:--------------------------------------|
Gb:--------------------------------------|
Db:------3---4---3--------6--------8-----|
Ab:--1-1---1---1-----4-4------6--6-------|
Eb:--------------------------------------|
[ Tab from: http://www.guitartabs.cc/tabs/0-9/30_seconds_to_mars/was_it_a_dream_tab.html ]
Eb:---------------------------------------|
Bb:---------------------------------------|
Gb:---------------------------------------|
Db:------3---4---3--------6---------6-----|
Ab:--1-1---1---1-----4-4------4--4--------|
Eb:---------------------------------------|

Eb:---------------------------------------|
Bb:---------------------------------------|
Gb:---------------------------------------|
Db:-------6------6-------10-----10--------|
Ab:------------------8-8----8-8-----------|
Eb:---4-4----4-4--------------------------|


chorus
Eb:-----------------------|
Bb:-----------------------|
Gb:--6----8---------10----|
Db:--6----8----8----10----|
Ab:--4----6----8----8-----|
Eb:------------6----------|


Bridge       x4
Eb:---------------|
Bb:---------------|
Gb:--10---8-------|
Db:--10---6-------|
Ab:--8----6-------|
Eb:---------------|
    p.m.  p.m
Comments