30 Seconds To Mars - Revolve Chords & Tabs

 

Revolve Chords & Tabs

30 Seconds To Mars Chords & Tabs

Version: 1 Type: Chords 0 ratings
1 star 2 stars 3 stars 4 stars 5 stars
comments

Revolve Chords

Artist: 30 Seconds To Mars
Song: Revolve
Tabbed by: KirSy_@hotmail.com


Verse(in arpeggio)
D:----------------------|
A:----------------------|
F:----------------------|
C:-0--0--0--0-0---------|
G:-9--7--5--5-4---------|
D:-7--5--3--3-2---------|
[ Tab from: http://www.guitartabs.cc/tabs/0-9/30_seconds_to_mars/revolve_crd.html ]
Chorus
D:----------------------|
A:----------------------|
F:----------------------|
C:-0--0--0--0-0---------|
G:-9--7--5--5-4---------|
D:-7--5--3--3-2---------|

Eb:--------------------------|
Bb:--------------------------|
Gb:--------------------------|
Db:--5--7--9--11-------------|
Ab:--5--7--9--11-------------|
Eb:--3--5--7--9--------------|
Comments